Motorhead tabs...
                               Motorhead
                        Love Can't Buy You Money

> From the "Overnight Sensation" album

Version 1.0
Last updated: June 1st, 1997

Transcribed by Matt Javes (matt@redstart.demon.co.uk)
            and Gus Siewert (ktulu@cs.mcgill.ca)

Visit Catch My Smoke - The Motorhead Tab Page
http://www.cs.mcgill.ca/~ktulu/motorhead

. : palm mute
x : fret hand muting (percussive tone)
<>: natural harmonics
/ : slide up
b : bend string
h : hammer-on
p : pull-off

Tuning: All down half a step, and the E string down a further whole step

Main Riff
e|-----------0----------------0--|
B|-----------3----------------3--|
G|-----------2----------------2--|
D|-----------0---------xxxx---0--|
A|-7-6-5---------7-6-5-xxxx------|
E|-7-6-5-33b3----7-6-5-xxxx3b----|

Verse                                   End
e|-------------------------------------|----|
B|-------------------------------------|-5--|
G|-------------------------------------|-5--|
D|-------------------------------------|-5--|
A|-------------0h3h5-------------5p3p0-|----|
E|-0-0-0-00-00-------0-0-0-00-00-------|----|
   . . . .. ..       . . . .. ..


Rhythm behind bass solo
This is played with a phaser and delay, it's kind of hard to hear
what's going exactly. Fiddle around with natural harmonics.
e|-0----------------------------------|
B|-0----<12>--------------------------|
G|-0--------<12>----------------------|
D|-2------------<12>--/7---<12>-etc.--|
A|-2------------------/7--------------|
E|-2------------------/7--------------|








Рекомендуем посетить сайты партнеров:

Реклама на сайте
Реклама По отличным ценам жалюзи рольставни специальное предложение.

MF-B 1998-2017: при цитировании ссылка на сайт Das ist Motorhead обязательна.