Motorhead tabs...

                               Lost Johnny

                            Kilmister, Farren

>From the "Motorhead" album (originally a Hawkwind song)

Visit Catch My Smoke - The Motorhead Tab Page
http://www.cs.mcgill.ca/~ktulu/motorhead

Version 1.0
Last updated: August 10th, 1997

Transcribed by Matt Javes (matt@redstart.demon.co.uk)
               Gus Siewert (ktulu@cs.mcgill.ca)

Tuning: Standard.

Intro pt1 
   Bass
G|----------------------|-------------------------------------|
D|--7-6-5---------------|--7-6-5------------------------------|
A|--------7--6--5--3----|--------7--6--5--3-------------------|
E|-------------------5--|-------------------5-3-555-555-555-5-|
 | Guitar
e|----------------------|-------------------------------------|
B|----------------------|-------------------------------------|
G|----------------------|--9\---------------------------------|
D|----------------------|--7\---------------------------------|
A|----------------------|-------------------------------------|
E|----------------------|-------------------------------------|

Intro pt2 (Bass + Guitar)
e|-5----------------------|
B|---8-5------------------|
G|-------7-5--------------|
D|-----------7-5----------|
A|---------------7-5-3--5-|
E|----------------------3-|

Rhythm A
e|-----------------|
B|-----------------|
G|-----------------|
D|-----------------|
A|-5/777-777-777-5-|
E|-3/555-555-555-3-|
Bass plays root notes.

Bass Fill A (played under Rhythm A)
G|-----------------|
D|-----------------|
A|---------3-------|
E|-3-555-55--5-4-3-|

Rhythm B            Fill B
e|-----------------|-------|
B|-----------------|-------|
G|-----------------|-------|
D|-7-999-999-999-7-|-5--7--|
A|-5-777-777-777-5-|-3--5--|
E|-----------------|-------|
Bass plays root notes.

Rhythm C
e|---------------------|
B|---------------------|
G|---------------------|
D|-5-555-57-777-75--7--|
A|-3-333-35-555-53--5--|
E|---------------------|
Bass plays root notes.




MF-B 1998-2017: при цитировании ссылка на сайт Das ist Motorhead обязательна.