Motorhead tabs...
                                  Loser

                                Motorhead

Originally released on the "Iron Fist" album

Version 1.0
September 3rd, 1997

Transcribed by Matt Javes (matt@redstart.demon.co.uk)
Revised by Gus Siewert (ktulu@cs.mcgill.ca)

Visit Catch My Smoke - The Motorhead Tab Page
http://www.cs.mcgill.ca/~ktulu/motorhead

Tune down to Eb.

.   = palm mute
h/p = hammer on/pull off
b/r = bend/release
~   = vibrato

Main/Chorus
e|-----------------------|
B|-----------------------|
G|---------------5-------|
D|----7-9-10-9-7-5-------|
A|-0---0-0--0-0--3-------|
E|-----------------------|
       . .  . .

Verse A
e|-------------------------------------|
B|-------------------------------------|
G|-------------------------------------|
D|-7--7--7-7-7-10-10-10-10-12-12-12-12-|
A|-5--5--5-5-5--8--8--8--8-10-10-10-10-|
E|-------------------------------------|

Verse B
e|-10b--10-8----10b--10-8-10-8-----|
B|-----------10----------------10~-|
G|---------------------------------|
D|---------------------------------|
A|---------------------------------|
E|---------------------------------|
 | Lemmy might be playing this:
G|-7b--7-5---7b--7-5-7-5----|
D|---------7-------------7~-|
A|--------------------------|
E|--------------------------|

Verse Order: ABABA

Pre-Solo
e|-----------------|
B|-----------------|
G|-----------------|
D|-----5-------5---|
A|-5-7---7-5-7---7-|
E|-----------------|

The bass plays the Verse behind the solo.

-=Bridge/Outro=-

Bridge Start
e|--------------|
B|--------------|
G|--------------|
D|----------5---|
A|-5p3--3---3---|
E|----h5--5-----|

The Guitar plays solos from hear on.

Bridge Pt.1 (Bass) -increasing in speed throughout.
G|-----------------------------------------|
D|-----------------------------------------|
A|-0-------2-3-------2-0-------2-3-------2-|
E|-----------------------------------------|

Bridge Pt.2 (Bass)
G|---------------------------------|
D|---------------------------------|
A|-3-2-0-3-2-0-3-2-3-2-0-3-2-0-3-2-|
E|---------------------------------|

Coda (Bass)
G|-------------------------|
D|-------------------------|
A|-3--2--1--0--3--2--1--0--|
E|-------------------------|





MF-B 1998-2017: при цитировании ссылка на сайт Das ist Motorhead обязательна.