Motorhead tabs...
Visit Catch My Smoke - The Motorhead Tab Page
http://www.cs.mcgill.ca/~ktulu/motorhead


                                Locomotive

                                Motorhead

>From the No Remorse album.

Version 1.0
June 8th, 1997

I'm not sure how accurate this tab is; the drums drown everything else
out.

Tune down to Eb.

Main Riff
e|-----------------------------|
B|-----------------------------|
G|-----------5-7-----------7-5-|
D|------7-7775-7------7-7777-5-|
A|-0h3h45-555----0h3h45-555----|
E|-----------------------------|

Chorus
e|----------------------------------------------------------|
B|----------------------------------------------------------|
G|----------------------------------------------------------|
D|----------------------------------------------------------|
A|-5-55-555-55-555-55-555-55-553-33-333-33-333-33-333-33-33-|
E|-3-33-333-33-333-33-333-33-331-11-111-11-111-11-111-11-11-|

e|----------------------------------------------------------|
B|----------------------------------------------------------|
G|----------------------------------------------------------|
D|-----------------------------9-99-999-99-998-88-887-77-77-|
A|-5-55-555-55-555-55-555-55-557-77-777-77-776-66-665-55-55-|
E|-3-33-333-33-333-33-333-33-33-----------------------------|

-- 
Matt Javes              Everything above represents my opinion only. 
                                Except when I'm lying....

        matt@redstart.demon.co.uk 

                
                





Рекомендуем посетить сайты партнеров:

Реклама на сайте
Реклама выступление артистов на свадьбе

MF-B 1998-2017: при цитировании ссылка на сайт Das ist Motorhead обязательна.