Motorhead tabs...

                               Live to Win

                                Motorhead

Originally released on the "Ace of Spades" album.

Version 1.3
December 14th, 1997

Transcribed by Matt Javes (matt@redstart.demon.co.uk)
            and Gus Siewert (ktulu@cs.mcgill.ca)

Visit Catch My Smoke - The Motorhead Tab Page
http://www.cs.mcgill.ca/~ktulu/motorhead

/ \ = slide up/down
 ~  = vibrato

Tune down to Eb

Intro
  Guitar                    (x3)                       4th time
e|------------------------------|------------------------------|
B|------------------------------|------------------------------|
G|------------------------------|------------------------------|
D|---9-9-9-9--------------------|---9-9-9-9--------------------|
A|---7-7-7-7--------------------|---7-7-7-7--------------------|
E|------------------------------|------------------------------|
 |Bass                          |
G|------------------------------|------------------------------|
D|---------------------5--4-----|---------------------5-5-7-7--|
A|-5-7-7-7-7--7--7-7-7-------5--|-5-7-7-7-7--7--7-7-7----------|
E|------------------------------|------------------------------|

Main riff
  Guitar
e|-------------------------|
B|---------------12-14-12~-|
G|---------------12-14-12~-|
D|-------------------------|
A|-12-14-------------------|
E|-10-12-------------------|
 |Bass                     
G|-------------------------|
D|----------------5--7--5--|
A|--5-7--7--7-7-7----------|
E|-------------------------|


Verse (x4) Bass only
G|---------------------------------|
D|---------------------------------|
A|-3/5-5-5-5-5-5-5-3/5-5-5-5-5-5-5-|
E|---------------------------------|

Chorus
   Bass
G|-play-three-times-|-play-once--------|
D|------------------|------------------|
A|------------------|------------------|
E|-7777777777777777-|-5555555555555555-|
 | Guitar
e|------------------|------------------|
B|------------------|------------------|
G|-11---------------|--9---------------|
D|--9---------------|--7---------------|
A|------------------|------------------|
E|------------------|------------------|

Solo backing 
Play once for first solo,
4 times for second solo/coda, the 3rd time the guitar joins in and plays
power chords rooted on what the bass is playing.
Bass
G|-----------------------------|-----------------------------|
D|-5-5-5-5-5-5-5-5-5-5-5-5-5-5-|-----------------------------|
A|-----------------------------|-5-5-5-5-5-5-5-5-5-5-5-5-5-5-|
E|-----------------------------|-----------------------------|

G|-----------------------------|-----------------------------|
D|-----------------------------|-----------------------------|
A|-3-3-3-3-3-3-3-3-3-3-3-3-3-3-|-2-2-2-2-2-2-2-2-2-2-2-2-2-2-|
E|-----------------------------|-----------------------------|

Fill over main riff following first solo
e|-------------------------|
B|-15--17--------12-14-12~-|
G|-17b-19b-------12-14-12~-|
D|-------------------------|
A|-------------------------|
E|-------------------------|



MF-B 1998-2017: при цитировании ссылка на сайт Das ist Motorhead обязательна.