Motorhead tabs...
                      You Ain't Gonna Live Forever

                                Motorhead

Originally released on ???
Transcribed from Archive Series (Motorhead) on Rialto Records

Version 1.0
February 4th, 1998

Transcribed by Matt Javes (matt@redstart.demon.co.uk)

Visit Catch My Smoke - The Motorhead Tab Page
http://www.cs.mcgill.ca/~ktulu/motorhead

Tune down to Eb (down half a step)

/ \ = slide up/down
b/r = bend/release
 .  = palm mute

Main Riff
e|-------------------|
B|-------------------|
G|-2-2225---2-22254--|
D|-2-2225---2-22254--|
A|-0-0003---0-00032--|
E|-------------------|

Verse                Verse Ending
e|------------------|------------------|
B|------------------|------------------|
G|------------------|-----------555777-|
D|-2--4-5-42--4-5-4-|-2--4-5-42-555777-|
A|-0-0203020-020302-|-0-0203020-333555-|
E|------------------|------------------|
   . ....... ......   . .......

Pre-Chorus
e|------------------|
B|------------------|
G|-7-7777775-555555-|
D|-7-7777775-555555-|
A|-5-5555553-333333-|
E|------------------|

Chorus                              x2                         x1
e|------------------------------------|--------------------------|
B|------------------------------------|--------------------------|
G|--------------------------------5---|------------------7-------|
D|-----------2-/4-4-4-4-/5-5-5-/7---7-|-----------2-/4-4-5-------|
A|-5-/7-7-\5--------------------------|-5-/7-7-\5----------------|
E|------------------------------------|--------------------------|

After 1st Chorus                                                x2
e|----------------------------------------------------------------|
B|----------------------------------------------------------------|
G|-14b--12-11-12-14----14-12-11-12-14----14--12-11-12-14-12-------|
D|-14b--12-11-12-14----14-12-11-12-14----14--12-11-12-14-12-------|
A|----------------------------------------------------------------|
E|----------------------------------------------------------------|

Solo Backing: Verse riff.

--
Matt Javes              Everything above represents my opinion only.
                                Except when I'm lying....

        matt@redstart.demon.co.uk






MF-B 1998-2017: при цитировании ссылка на сайт Das ist Motorhead обязательна.