Motorhead tabs...

                          Listen To Your Heart

                                Motorhead

Originally released on the "Overnight Sensation" album.

Version 1.0
October 17th, 1997

Transcribed by Matt Javes (matt@redstart.demon.co.uk)

Visit Catch My Smoke - The Motorhead Tab Page
http://www.cs.mcgill.ca/~ktulu/motorhead

Tune down to Eb.

*Note: I don't think that the lyric sheet is 100% accurate, so I've only
put the lyrics up to the 3rd verse.

Chords Used
-=Intro/Chorus=-                       
e|------------------------------------|
B|---------7-------------9------------|
G|---------7-------------9-----7---9--|
D|--7------7------9------9-----7---9--|
A|--7------5------9------7-----5---7--|
E|--5------5------7------7------------|
   A5i D(A bass) B5i E(B bass) D5 E5i   
-=Verse=-
e|----------------------------------------|
B|--------------------------------------7-|
G|----------2-------------5-------------7-|
D|---2------2------5------5------7------7-|
A|---2------0------5------3------7------5-|
E|---0------0------3------3------5------5-|
   E5ii A(E bass) G5i C(G bass) A5i D(A bass)

-=Bridge=-
e|----------------------|
B|----------------------|
G|----------------------|
D|----------------------|
A|---2-----5----7----9--|
E|---0-----3----5----7--|
   E5iii G5ii A5ii B5ii

-=Intro=-
B5i E(B bass) B5i E5i A5i D(A bass) A5i D5  x2

-=Verse1=-
A5i                          E5ii A(E bass) E5ii A(E bass) E5ii
Here we are, about to blow a fuse.
A5i                                E5ii A(E bass) E5ii A(E bass) E5ii
Hold it down, 'cause if you do you lose.
G5i          C(G bass)          D(A bass)
Give me time, I need to make mistakes.
G5i          C(G bass)             D(A bass)
Give me love, before my poor heart breaks.

-=Chorus=-
B5i E(B bass) B5i     E5i    A5i D(A bass) A5i      D5
Listen        to your heart, Listen        all your life.
B5i E(B bass) B5i     E5i        A5i  D(A bass) A5i   D5
Listen        to your heart, and then you'll    be  alright.

-=Verse2=-
Don't you see, the truth is always close.
Eyes are wide, just like you seen a ghost.
Give me hope, 'cause I was never sure.
Give me faith, 'cause I was never yours.

-=Chorus=-
Listen to your heart, listen all your life.
Look into my eyes, before you say goodbye.

-=Bridge=-
E5iii G5ii A5ii B5ii x4  B5ii

-=Solo Backing=-
AS INTRO.

-=Verse3=-
Raise your hand, if you deserve the blame.
If you can, then you won't die in shame.
Give me strength, so I can take a stand.
Give me light, so I can show my hand.

-=Coda=-
CHORUS TO END.

-- 
Matt Javes              Everything above represents my opinion only. 
                                Except when I'm lying....

        matt@redstart.demon.co.uk 

                
                



MF-B 1998-2017: при цитировании ссылка на сайт Das ist Motorhead обязательна.