Motorhead tabs...

                             Like A Nightmare

                                Motorhead

>B-side of the "No Class" single

Transcribed by Matt Javes (matt@redstart.demon.co.uk)

Version 1.0
August 17th, 1997

Visit Catch My Smoke - The Motorhead Tab Page
http://www.cs.mcgill.ca/~ktulu/motorhead

Tune down to Eb.

. = palm mute

Main Riff               Pre-Chorus
e|---------------------|-------------------------------------------|
B|---------------------|-------------------------------------------|
G|---------------------|-------------------------------------------|
D|-----7--9----7-------|-----5--7----5-----------5--7----5---2-5-7-|
A|-----5--7----5-------|-----3--5----3-----------3--5----3---0-3-5-|
E|-0-0-------0---------|-0-0-------0---------0-0-------0-----------|
   . .       .           . .       .         . .       .

Chorus                         (x2)             (x4)
e|--------------------------------|----------------|
B|--------------------------------|----------------|
G|--------------------------------|----------------|
D|-9-9-9-9-9-9-9-7--7-7-7-7-2-5-7-|-9----9---1111--|
A|-7-7-7-7-7-7-7-5--5-5-5-5-0-3-5-|-7----7---9-9---|
E|--------------------------------|----0---0-----0-|
                                       .   .     .
(at the end of the chorus, replace the last open E with a slide down)

-- 
Matt Javes              Everything above represents my opinion only. 
                                Except when I'm lying....

        matt@redstart.demon.co.uk 

                
                



MF-B 1998-2017: при цитировании ссылка на сайт Das ist Motorhead обязательна.