Motorhead tabs...
Visit Catch My Smoke - Killed By Motorhead Tabs
http://www.cs.mcgill.ca/~ktulu/motorhead


                             Motorhead

                       Leavin' Here (2 versions)


                            Version 1.0
                           June 7th, 1997

                   (live version from No Remorse)
                     Transcribed by Matt Javes

Tune down to Eb (half a step)

Riff A  
e|---------------|      
B|---------------|      
G|---------------|      
D|----55-77--75--|
A|-77-33-55--537-|      
E|-55----------5-|      

Riff B1 
e|---------------------------------------|
B|---------------------------------------|
G|---------------------------------------|
D|-----7-7-7-----7-7-7-----7-7-7---------|
A|-7-7-5-5-5-7-7-5-5-5-7-7-5-5-5-7-5-5-6-|
E|-5-5-------5-5-------5-5-------5-3-3-4-|

Riff B2 
e|-------------------|
B|-------------------|
G|-------------------|
D|-----7-7-7---------|
A|-7-7-5-5-5-7-5-5-6-|
E|-5-5-------5-3-3-4-|


-----------

                    (live version on Golden Years)
                Transcribed by Ritte, ritte@dystopia.fi                

Riff A

e|-----------|
B|-----------|
G|-----------|
D|-----3-3-5-|
A|-5-5-1-1-3-|
E|-3-3-------|


Riff B (PLAY UNDER PRE-CHORUS AND CHORUS)

e|------------------------------------------------------|
B|------------------------------------------------------|
G|------------------------------------------------------|
D|-----5-5-5-5--------5-5-5-5--------5-5-5-5------------|
A|-5-5-3-3-3-3---5-5--3-3-3-3---5-5--3-3-3-3-----5-3-3-4|
E|-3-3-----------3-3------------3-3--------------3-1-1-2|

RIFF A
RIFF A
RIFF A
Hey, fellows, have you heard the news?


The girls on the town are being misused.


I seen it all in a dream last night.


Girls leaving this town 'cause you don't treat'em right.


I'm leaving, leaving here,
I'm leaving, leaving here,
Hey, you fellows, better change your ways


Or they'll be leaving this town in a matter of days.


The girls say, and it rings so true,


We fellows run around with someone new.


I'm leaving, leaving here,
I'm leaving, leaving here,


Yeah, one by one
Yeah, two by two
Yeah, three by three
Yeah, four by four.


Loving woman is a wonderful thing


But the way that we treat'em is a crying shame.


One day, one day, and it won't belong.


And all them fine chicks be gone.


I'm leaving, leaving here,
I'm leaving, leaving here,
Hey, you fellows, better change your ways


Or they'll be leaving this town in a matter of days.


The girls say, and it rings so true,


We fellows run around with someone new.


I'm leaving, leaving here,
I'm leaving, leaving here,


Yeah, one by one
Yeah, two by two
Yeah, three by three
Yeah, four by four,
Oh yeah, Oh, yeah hah,
I'm leaving here.




MF-B 1998-2017: при цитировании ссылка на сайт Das ist Motorhead обязательна.