Motorhead tabs...
                                  Lawman

                                 Motorhead


>From the "Bomber" album

Visit Catch My Smoke - The Motorhead Tab Page
http://www.cs.mcgill.ca/~ktulu/motorhead

Version 1.1
July 19th, 1997

Transcribed by Matt Javes (matt@redstart.demon.co.uk)
Corrected by Gus Siewert (ktulu@cs.mcgill.ca)

. : palm muting
~ : vibrato

Tune down to Eb.

Main riff
e|----------------|
B|----------------|
G|---7-9--7-9-7---|
D|---7-9--7-9-7---|
A|----------------|
E|-00-------------|
   ..

Verse
e|----------------|
B|----------8-----|
G|---7-9----7-7---|
D|---7-9------7---|
A|----------------|
E|-00-----0-------|
   ..     .

Pre-chorus
e|--------------------------------|
B|--------------------------------|
G|--------------------------------|
D|---5-3-------------5-3----------|
A|-------5-3-1~~---------5-3-1-1~-|
E|-33-------------33--------------|

Chorus
e|----------------|
B|----------------|
G|-12-10~--12-10~-|
D|-12-10~--12-10~-|
A|----------------|
E|----------------|



MF-B 1998-2017: при цитировании ссылка на сайт Das ist Motorhead обязательна.