Motorhead tabs...

                               Under the Knife
                            (12" Single Version)

                                  Motorhead

Last updated: May 11th, 1997

Like the other Under the Knife, this is probably a B-side from
the single released from No Remorse.

Tune down to Eb.

Main Riff
e|--------------------------|
B|--------------------------|
G|---------575~---------5~~-|
D|---7-5-75------7-5-75-----|
A|-00-0-0------00-0-0-------|
E|--------------------------|
The last note is sometimes played as an artificial harmonic.

Rhythm Fill (before chorus)
e|---------------------------|
B|---------------------------|
G|---------575~--------------|
D|---7-5-75-------567---57-7-|
A|-00-0-0------567---567-5-5-|
E|---------------------------|

Chorus
e|----------------------------------------------------|
B|----------------------------------------------------|
G|----------------------------------------------------|
D|-9-9-99-99-9------9-9-99-99-9------9-9-99-99-9------|
A|-7-7-77-77-7---57-7-7-77-77-7---57-7-7-77-77-7---57-|
E|-------------57---------------57---------------57---|

Chorus Ending 1      Chorus Ending 2
e|------------------|------------------|
B|------------------|------------------|
G|------------------|------------------|
D|-5555555555555555-|-5555555577777777-|
A|-3333333333333333-|-3333333355555555-|
E|------------------|------------------|
There's some sort of fill over the 2nd ending, but I haven't got
it yet.

Pre-solo
e|------------------------------|
B|------------------------------|
G|------------------------------|
D|------------------------------|
A|-7-77-77-7-7-7-7-7-77-77-7----|
E|-5-55-55-5-5-5-5-5-55-55-5----|

Solo Backing
e|---------------------------------|
B|---------------------------------|
G|---------------------------------|
D|---------5-------7-------5-------|
A|-7-------3-------5-------3-------|
E|-5-------------------------------|


-- 
Matt Javes              Everything above represents my opinion only. 
                                Except when I'm lying....

        matt@redstart.demon.co.uk 

                
                



MF-B 1998-2017: при цитировании ссылка на сайт Das ist Motorhead обязательна.