Motorhead tabs...
                              KILLED BY DEATH
                        (I. Kilmister, M. Burston)
                             Motor Music Ltd.

                               Version 1.1
                             June 24th, 1997

Chords by Matt Javes (matt@redstart.demon.co.uk)
Solo by Gus Siewert (ktulu@cs.mcgill.ca)

Visit Catch My Smoke - Killed by Motorhead Tabs
http://www.cs.mcgill.ca/~ktulu/motorhead

< > : pinch harmonic
 h  : hammer-on
 p  : pull off 
 b  : bend
 r  : release bend
 /  : slide up
 \  : slide down
 ~  : vibrato

The original album version was played in standard tuning, live
it was played tuned down half a step.

e|-----------------|
B|-----------------|
G|--------------5--|
D|--------7--9--5--|
A|--3--7--5--7-----|
E|--1--5-----------|
    F  A  D  E  C

-=INTRO=-
AFDE x2

Intro Solo
    A					     F
e|--20p17-20p17-20p17-19-15-17-15b~-\8-10/11\10-8-10~---8-10-----------|
B|-----------------------------------------------------------8-8h10~-\-|
G|---------------------------------------------------------------------|
D|---------------------------------------------------------------------|
A|---------------------------------------------------------------------|
E|---------------------------------------------------------------------|

                   D
e|---------------------------------------------------------|
B|---------------------------------------------------------|
G|-/4h5-7br-7-5p4-7~----5---------------------------7h9-5~-|
D|------------------------7-10p7-7-10p7-10p7-7-10p7--------|
A|---------------------------------------------------------|
E|---------------------------------------------------------|

          |  gradually dive with | 
       E  |  whammy bar          |
e|--------------------------------------|
B|-----------------<6>----<5>-----------|
G|-7-5-7b--<7>-<7>----<7>-----<7>--7~-\-|
D|------(hold bend)---------------------|
A|--------------------------------------|
E|--------------------------------------|

-=VERSE1=-
A                       C
If you squeeze my lizard
A                       C
I'll put my snake on you
A                       C
I'm a romantic adventure
A                    C
And I'm a reptile too

-=PRECHORUS=-
F
But it don't make no difference
D                      E
'cos I ain't gonna be, easy, easy
E
the only time I'm easy's when I'm

-=CHORUS=-
A
Killed by death
F
Killed by death
D
Killed by death
E
Killed by death

-=VERSE2=-
I'm a lone wolf ligger
But I ain't no pretty boy
I'm a backbone shiver
and I'm a bundle of joy

-=PRECHORUS=-

-=CHORUS=-

-=CHORUS=-

-=SOLO=-
AFDE x2

-=BRIDGE=-
Same as chorus but with palm muting.

-=BRIDGE=-

-=CHORUS=-
Repeat to end.






MF-B 1998-2017: при цитировании ссылка на сайт Das ist Motorhead обязательна.