Motorhead tabs...

                             Keep Us on the Road

                                 Motorhead

> From the "Motorhead" album

Version 1.0
Last updated: September 26th, 1997

Guitar by Matt Javes (matt@redstart.demon.co.uk)
Bass by Dave Death (kaosfrenzy@aol.com)

Visit Catch My Smoke - The Motorhead Tab Page
http://www.cs.mcgill.ca/~ktulu/motorhead

Version 2.0
February 23rd, 1998

Standard tuning.

GUITAR
------

Main Riff
e|----------------------------|
B|----------------------------|
G|---9---12---9---12--77------| 
D|---9---12---9---12--777h9p7-|
A|----------------------------|
E|-00--00---00--00------------|
   ..  ..   ..  ..

Chorus
e|-------------------------------|------|---------|------------------|
B|-------------------------------|------|---------|------------------|
G|-------------------------------|-Main-|-Section-|------------------|
D|-------------------------------|-Riff-|----A----|------------------|
A|-7--7--7--777-7-5--5--5--555-5-|------|---------|-9999999999999999-|
E|-5--5--5--555-5-3--3--3--333-3-|------|---------|-7777777777777777-|
         ^Section A^

Solo Backing
e|-------------------------------------|
B|-------------------------------------|
G|-------------------------------------|
D|-9-------7-------5-------5-4-5-6-7-8-|
A|-7-------5-------3-------3-2-3-4-5-6-|
E|-------------------------------------|
The sustained chords are strummed later on in a similar pattern
to Section A of the Chorus.

Bass Solo Backing
e|---------------------------------|
B|---------------------------------|
G|---------------------------------|
D|-9-------5-------7-------9-------|
A|-7-------3-------5-------7-------|
E|---------------------------------|
Again, this is strummed later on.

                
BASS
----
Tuned 1/2 down

Intro. (for guitar use Main Riff (x4))
G|-------------------------|---------------------------------------|
D|-------------------------|---------------------------------5-----|
A|------------------5/7----|--7-7---5-5---7p6p5h7----7----5--------|
E|-------------------------|------------------------------------7--|

G|------------------------------------------------------|-------------------------------------------------|
D|-------------------------------------------5----------|-------------------------------------------------|
A|-7---7-------5---5-------7p6p5h7--------7--------5----|-7---7--------5---5-------7---5------------------|
E|----------------------------------------------------7-|-------------------------------------7-6-5-3-0-3-|

Main Riff (x8)
G|---------------------------------------|
D|------------------------------5--------|
A|-----7-----5------7-5------7------5----|
E|-0-0---0-0---0-0------7--------7-------|

Chorus
G|-------------------------------|---------------------------------|
D|-------------------------------|---------------------------------|
A|-------------------------------|----7------5-----7-5-------------|
E|-5--5--5--555-5-3--3--3--333-3-|-00----00----00------7-6-5-3-0-3-|

G|------------------------------|---------------------------------|
D|------------------------------|---------------------------------|
A|------------------------------|---------------------------------|
E|-5--5--5--555-5-3--3--3--3235-|-779--9-10-10-99-779--9-10-10-99-|

Main Riff (x8)

Chorus

Main Riff (x4) :guitar solo
Chorus: guitar solo

Solo Backing (x4)
G|----------------------------------------------------|
D|----------------------------------------------------|
A|-777--77-77-7-555--55-55-5-333--33-33-3-3-2-3-4-5-6-|
E|----------------------------------------------------|

Bass Solo Backing (x8)
Bass Solo
G|---------------------------------------|---------------------------------------------------|
D|---------------------------------------|---------------------------------------------------|
A|-7-------5-------3---2-5-7---77-----5--|-7---77-9-10-10-9-9-9-10-9-7-10-9-7-7---77------5--|
E|---------------------------------77----|--------------------------------------------77-----|

G|-------------------------------------------------|----------------------------------------------|
D|-------------------------------------------------|----------------------------------------------|
A|-7-5---7-5------------2-0----2-0-----------------|---5-77-9-10-9-10-9--9-10-9-10-10-9-10-9-77-5-|
E|------7------7-5--3-3------3-------3-2-0-0-2-3-5-|-7--------------------------------------------|

G|------------------------------------------------------------|------------------------------------------------|
D|------------------------------------------------------------|------------------------------------------------|
A|-7-5------5----7-5----7-5----7-5------5-75-75-75-75-75-75-5-|-75-75-75-75-75-75-75-75-75-75-75-75-765---5----|
E|------7-7----7------7------7------7-------7--7--7--7--7--7--|---7--7--7--7--7--7--7--7--7--7--7--7----77--76-|

G|------------------------------------------------|-------------------------------------|
D|------------------------------------------------|-------------------------------------|
A|----------------------------------555-55-55-5-7-|-777-77-77-7-333-33-33-3-555-55-55-5-|
E|-0-23-3-5-5-3-5-3-777-77-77-7-------------------|-------------------------------------|

Main Riff (x8)

Solo Backing (x4)

Coda
e|------------------------------------------------------------------------------------|--------------------------------------------------------------------|
B|------------------------------------------------------------------------------------|-------------------------------------------------------------------|
G|------------------------------------------------------------------------------------|-------------------------------------------------------------------|
D|-9-------7-------5-------44444444444444444444444444444444-|-99999999999999999999999999999999-------9-|
A|-7-------5-------3-------22222222222222222222222222222222-|-77777777777777777777777777777777-------7-|
E|------------------------------------------------------------------------------------|-------------------------------------------------------------------|

G|------------------------------------------------------------------------------------|------------------------------------------------------------------|
D|------------------------------------------------------------------------------------|------------------------------------------------------------------|
A|-7-------5-------3-------22222222222222222222222222222222-|-77777777777777777777765----------------------7-|
E|------------------------------------------------------------------------------------|-------------------------------------------77653---------------|
                




MF-B 1998-2017: при цитировании ссылка на сайт Das ist Motorhead обязательна.