Motorhead tabs...
Visit Catch My Smoke - The Motorhead Tab Page
http://www.cs.mcgill.ca/~ktulu/motorhead


                        Just 'cos You Got the Power

                                Motorhead
>B-side of Eat The Rich

Version 1.1
June 8th, 1997

I tabbed this from a live bootleg called Gonna Make Your Ears Bleed. The
sound quality isn't exactly great so it's pretty hard to make a lot of
it out.

Tune down to Eb.

Main Riff
e|-------------------------------------|
B|-------------------------------------|
G|-----5---7---5-7-----5---7-----------|
D|-----5---7---5-7-----5---7-----------|
A|-0-003-005-003-5-0-003-005-005p3-----|
E|---------------------------------5b--|
   . ..  ..  ..    . ..  ..  ..

Pre-Chorus
e|---------0-h1------|
B|---------0-h1------|
G|-7-----------------|
D|-7-----------------|
A|-5-----------------|
E|-------------------|

Chorus
e|-----------------|
B|-----------------|
G|-7---------------|
D|-7-------5-------|
A|-5-------5-------|
E|---------3-------|

-- 
Matt Javes              Everything above represents my opinion only. 
                                Except when I'm lying....

        matt@redstart.demon.co.uk 

                
                





Рекомендуем посетить сайты партнеров:

Реклама на сайте
Реклама Спешите! Деревянные поддоны есть здесь - отличные паллеты. Цены - шик!

MF-B 1998-2017: при цитировании ссылка на сайт Das ist Motorhead обязательна.