Motorhead tabs...
                                Motorhead
                                Jailbait
                     from the "Ace of Spades" album

                               Version 1.2

Last updated: May 16th, 1997

Transcribed by  Matt Javes (matt@redstart.demon.co.uk)
            and Gus Siewert (ktulu@cs.mcgill.ca)

Visit Catch My Smoke - The Motorhead Tab Page
http://www.cs.mcgill.ca/~ktulu/motorhead

h : hammer-on
p : pull-off
\ : slide down
~ : vibrato

Tune down to Eb.

Intro (with verse in background)
e|----------------------------|
B|----------------------------|
G|----3----5----3-------------|
D|----3----5----3-----3h5p3---|
A|----------------3h5-------5-|
E|-333--333--333--------------|

Verse
e|---------------------|
B|---------------------|
G|----3----5----3---55-|
D|----3----5----3---55-|
A|---------------------|
E|-333--333--333--33---|

Chorus
e|---------------------------------------|
B|---------------------------------------|
G|---------------------------------------|
D|---------------------------------------|
A|-9-9-7-9--9-9-7-99-77-7-77-7-77-7-77-7-|
E|-7-7-5-7--7-7-5-77-55-5-55-5-55-5-55-5-|

e|-------------------------------------------------------|
B|-------------------------------------------------------|
G|-------------------------------------------------------|
D|-1010-10-1010-10-1010-10-1010-10-99-9-99-9-99-9--------|
A|--8-8--8--8-8--8--8-8--8--8-8--8-77-7-77-7-77-7---575--|
E|------------------------------------------------57---7-|

Bridge (x7)   Fill
e|-----------|------------|---------------------|
B|-----------|------------|---------------------|
G|-----------|------------|---------------------|
D|-------5---|-5-7b-7-5-7-|-2nd block of chorus-|
A|-577777-7~-|------------|---------------------|
E|-----------|------------|---------------------|

Coda
e|--------------------------------------------|
B|--------------------------------------------|
G|-11-11-9-11--11-11-9-1111-99-9-99-9-99-9-99-|
D|--9--9-7--9---9--9-7--9-9-77-7-77-7-77-7-77-|
A|--------------------------------------------|
E|--------------------------------------------|

e|------------------------------------------------|
B|------------------------------------------------|
G|------------------------------------------------|
D|-1010-10-1010-10-1010-10-1010-10-99-9-99-9-99-9-|
A|--8-8--8--8-8--8--8-8--8--8-8--8-77-7-77-7-77-7-|
E|------------------------------------------------|

e|-------------------------------------------------5-----------------|
B|-------------------------------------------------5-----------------|
G|-------------------------------------------------5-----------------|
D|-------------------------------------------------7tremolo pick--7\-|
A|---575---575---575---575-----5-7-5-------5-7-5---7--------------7\-|
E|-57---757---757---757---75-7-------7-5-7-------7-5--------------5\-|



MF-B 1998-2017: при цитировании ссылка на сайт Das ist Motorhead обязательна.