Motorhead tabs...
                               JACK THE RIPPER

                                 Motorhead
                     from the album "March or Die"  1992

                       transcribed by Scott Andrews

Main Riff
                     3x                      1x   repeat
|----------------------|-----------------------|
|----------------------|-----------------------|
|----------------------|-----------------------|
|-------------------2--|-----------------------|
|---------2-2-3-3-4----|---------2-2--2-3-2----|
|--2-2-5---------------|--2-2-5-------------5--|


Chorus
|--------------------|--------------------------|
|--------------------|--------------------------|
|--------------------|--------------------------|
|--2--2-------2---/--|--2--2-------2-------5-7--|
|--0--0-------0---/--|--0--0-------0---5-7------|
|--------3-3---------|--------3-3---------------|

|--------------------|---------------------------|
|--------------------|---------------------------|
|--------------------|---------------------------|
|--2--2-------2---/--|--2--2-------7-5-----------|
|--0--0-------0---/--|--0--0-----------7-6-5--3--|
|--------3-3---------|--------3-3----------------|


Half Time Middle Section
|-----------------------------|----------------------------------|
|-----------------------------|----------------------------------|
|---------9-------------------|---------9------------------------|
|---------9-------------------|---------9------------------------|
|--2--2---7-------------5-7---|--2--2---7-------------5--7--5----|
|--0--0-------0-0-0-0---3-5---|--0--0-------0-0-0-0---3--5--3----|


Ascending Chords:
E  F  F#  G  Ab  A  B  B





MF-B 1998-2017: при цитировании ссылка на сайт Das ist Motorhead обязательна.