Motorhead tabs...
. : palm mute
Tune down to Eb

Bass intro
G|----------------------|
D|----------------5---7-|
A|-5-7-777-5-7777---5---|
E|----------------------|

Guitar Intro             (x4)
e|-------|-------|----------------------|
B|-------|-------|----------------------|
G|---7---|---7---|------------------7---|
D|-5-7-7-|-5-7-7-|----------------5-7-7-|
A|-5-5-7-|-5-5-7-|----------------5-5-7-|
E|-3---5-|-3---5-|-0-0-000-0-0000-3---5-|
                   . . ... . ....        

Verse
e|----------------------------------------------------------|
B|----------------------------------------------------------|
G|------------------------------------------------------7---|
D|----------------------------------------------------5-7-7-|
A|----------------------------------------------------5-5-7-|
E|-0-0-000-0-0000-0-0-000-0-00000-0-000-0-00000-0-000-3---5-|
   . . ... . .... . . ... . ..... . ... . ..... . ...        

Chorus
e|-----------------------------------------------------------------|
B|-----------------------------------------------------------------|
G|----------7-9-7----12-12-12----7-9-7-------------7-9-7--12-12-12-|
D|-7-7-7----7-9-7----12-12-12----7-9-7----7-7-7----7-9-7--12-12-12-|
A|-7-7-7----5-7-5----10-10-10----5-7-5----7-7-7----5-7-5--10-10-10-|
E|-5-5-5----------------------------------5-5-5--------------------|
 
Fill between 1st and 2nd verse
e|---------------------------------------------------|
B|---------------------------------------------------|
G|-7-9-999-7-9999-7-9-999-12~---7-9-999-7-9999---7---|
D|------------------------12-------------------5-7-7-|
A|---------------------------------------------5-5-7-|
E|---------------------------------------------3---5-|

Rhythm behind solo is Verse+Chorus

Coda
e|-----------------------------------------------------------|
B|-----------------------------------------------------------|
G|-12-12-7----12-12-7----12---12---7-----12---12---7---------|
D|-12-12-7----12-12-7----12---12---7-----12---12---7---------|
A|-10-10-5----10-10-5----10---10---5-----10---10---5-----etc-|
E|-----------------------------------------------------------|




MF-B 1998-2017: при цитировании ссылка на сайт Das ist Motorhead обязательна.