Motorhead tabs...
                               In Another Time

                                 Motorhead

>From the Sacrifice album.

Version 1.0
Last Updated: May 24th, 1997

Transcribed by  Matt Javes (matt@redstart.demon.co.uk)
Revised by Gus Siewert (ktulu@cs.mcgill.ca)

Visit Catch My Smoke - The Motorhead Tab Page
http://www.cs.mcgill.ca/~ktulu/motorhead

Tuning: All down half a step, then tune the E string down a
        further 1 step.

/ = tremelo pick
/

Intro
e|----------------------------|
B|-3--------33----3--------33-|
G|-2--------33----2--------33-|
D|-0-0000000---0000-0000000---|
A|----------------------------|
E|----------------------------|
     .......   ...  .......

Main Riff
e|-----------------|
B|-----------------|
G|-----------------|
D|-----------------|
A|-0-565353--53--5-|
E|-0-565353--53--5-|

Verse
e|--------------------------------------------------------|
B|----------33----3--------33----3--------33----3---------|
G|----------33----2--------33----2--------33----2---------|
d|-0-0000000---0000-0000000---0000-0000000---0000-0000000-|
A|--------------------------------------------------------|
E|--------------------------------------------------------|
     .......   ...  .......   ...  .......   ...  .......
End 1     End 2
e|--------|----------|
B|-333----|----------|
G|-333----|----------|
D|--------|-00000000-|
A|--------|----------|
E|--------|----------|

Fill (with Wah)
e|------------------------------|
B|-898686--86--8\3898686--86--8-|
G|------------------------------|
D|------------------------------|
A|------------------------------|
E|------------------------------|

Bridge (with Wah)                            4th time
e|------------------------------------------|--------------------|
B|------------------------------------------|--------------------|
G|------------------------------------------|--------------------|
D|------------------------------------------|--------------------|
A|-1212121212121212666666663333333399999999-|-1212----333333339\-|
E|-1212121212121212666666663333333399999999-|-1212etc.333333339\-|

Coda
e|-----------------------------------|
B|-----------------------------------|
G|-----------------------------------|
D|--------------------------------7\-|
A|-65--65--65--65--3---0----------5\-|
E|-65--65--65--65--3---0----------0--|
                       /
                       /






Рекомендуем посетить сайты партнеров:

Реклама на сайте
Реклама В нашей фирме доставка суши на выгодных условиях.

MF-B 1998-2017: при цитировании ссылка на сайт Das ist Motorhead обязательна.