Motorhead tabs...
                               Motorhead

                             I'm The Doctor

> From the "Iron Fist" album

Version 1.1
Last updated: June 18th, 1997

Transcribed by: Gus Siewert (ktulu@cs.mcgill.ca)
Corrections by: Matt Javes (matt@redstart.demon.co.uk), max (makcdoshker@ukr.net)

Visit Catch My Smoke - The Motorhead Tab Page
http://www.cs.mcgill.ca/~ktulu/motorhead

. : palm mute

Tune down to Eb

Intro
e|-------------------------|--------------------------|
B|-------------------------|--------------------------|
G|-------------------------|--------------------------|
D|-9-9-9-9-9-9-9-9-9-9-9-9-|-7-7-7-7-7--5-5----5------|
A|-9-9-9-9-9-9-9-9-9-9-9-9-|-7-7-7-7-7--5-5----5------|
E|-7-7-7-7-7-7-7-7-7-7-7-7-|-5-5-5-5-5--3-3----3------|

Verse
e|-------------------|
B|-------------------|
G|-------------------|
D|---9---9-9---------|
A|---7---7-7------5--|
E|-0---0------5-7----|
   .   .

Pre-Chorus
e|---------------------------------|---------------------------------|
B|---------------------------------|---------------------------------|
G|---------------------------------|---------------------------------|
D|---------------------------------|---------------------------------|
A|-4-44-44-4-44-44-4-44-44-4-44-44-|-9-99-99-9-99-99-9-99-99-9-99-99-|
E|-2-22-22-2-22-22-2-22-22-2-22-22-|-7-77-77-7-77-77-7-77-77-7-77-77-|

Chorus
e|-----------------|-----------------|
B|-----------------|-----------------|
G|-----------------|-----------------|
D|-----------------|-----------------|
A|-5-55-55-5-55-55-|-7-77-77-7-77-77-|
E|-3-33-33-3-33-33-|-5-55-55-5-55-55-|

Solo
|-----------------------------------|
|---------------5p3p0-3-5-3p0-5-5-5-|
|-9b-----7--------------------4-4-4-|
|------9----------------------------|
|-----------------------------------|
|-----------------------------------|

|----------------------------------------------------------------------|
|----------------------------------------------------------------------|
|-7b--p5-7---7b--p5-7p5---5---------5----------------------5-5-7p5---5-|
|-----------------------7----7p5-7----7p5-7--5-\-------------5-----7---|
|------------------------------------------------0-3-5-5/7-------------|
|----------------------------------------------------------------------|

|------------------------|
|------------------------|
|-----7-5----------------|
|-5/7-----7p5-7p5---5-7--|
|-----------------7------|
|------------------------|

|------------------------------------------------------------------|
|----7--------7---------------7---7--7---7--7--7--7--7--7--7--7--7-|
|----7--9p7---7-7b--------7-9b--9b--9b--9b-9b-9b-9b-9b-9b-9b-9b-9b-|
|-/9--------9------9-7-9-------------------------------------------|
|------------------------------------------------------------------|
|------------------------------------------------------------------|

|---------------------------------------------10------------------|
|-9-10-10-10-10-10-10-10-10-10----------8-10b----10p8---7---------|
|-9-9--9--9--9--9--9--9--9--9---9p7-9p7---------------9-----9p7-9-|
|-----------------------------------------------------------------|
|-----------------------------------------------------------------|
|-----------------------------------------------------------------|

|---10b--10b--10b--------------------10b--------------------------------------|
|-7-10b--10b--10b--10p8---8------8-8-10b--8-10p8----8-------------------------|
|-----------------------9---9----9-9-------------9-----9--7-9p7----7-7-7-9--\-|
|---------------------------------------------------------------9-------------|
|-----------------------------------------------------------------------------|
|-----------------------------------------------------------------------------|

Solo Backing 
                   (x2)  A    B  Chorus
e|---------------------|----|---|---|---|
B|---------------------|----|---|---|---|
G|---------------------|----|---|---|---|
D|---9---9-9-----------|-7--|-9-|-5-|-7-|
A|---7---7-7------5----|-7--|-9-|-5-|-7-|
E|-0---0------5-7------|-5--|-7-|-3-|-5-|
   .   .

A & B: these are played in the same rhythm as the pre-chorus and are the
same length (ie. play 4 bars of A and 4 of B)

Lyrics:
I know the way you feel, I know you ain't too good,
I know it feels like there's detergent in your blood
But don't you worry, gonna make you feel alright,
I'm gonna lift your black depression, Help ya make it through the night

I'm your man, you know I'll help you if I can,
'Cos I'm The Doctor

I know you're desperate, I really sympathise,
I see the morbid horror flicker in your eyes,
But rest assured I'm gonna help you ease your pain,
I'm gonna put a thousand tiny implants in your brain,

I'm your boy, I'll make you undulate with joy,
'Cos I'm The Doctor

Don't get too depressed, I've found a way to help your case
A little hypodermic sends you into outer space,
You'll feel much better when you take these little pills,
I'm gonna give you sixty bottles, I believe in overkill,

Heart attack, you know you're never coming back,
'Cos I'm The Doctor.




MF-B 1998-2017: при цитировании ссылка на сайт Das ist Motorhead обязательна.