Motorhead tabs...
/---------------------------------------------------------------------------
/ The following is the author's own interpertation of the song, to be used -
/ for studying or private use only                                         -
/---------------------------------------------------------------------------
                   MOTORHEAD - "I'LL BE YOUR SISTER"
                    From the Album "OVERKILL"
                    Copyright 1978 Bronze Records

Version 2.0
Transcribed by: Gus Siewert (ktulu@cs.mcgill.ca) &
                Matt Javes (matt@redstart.demon.co.uk)

Visit Catch My Smoke - The Motorhead Tab Page
http://www.cs.mcgill.ca/~ktulu/motorhead
                                                                    
~ - vibrato
p - pull off
. - palm mute
                                                                              

Tune down to Eb (half a step)

Bass Intro
G|---------------------------------------|
D|---------------------------------------|
A|-0-0-0-0-0-0-0-0--0-0-3-4-5-3---3-5-3--|
E|---------------------------------------|
   . .     . .      . .

Guitar Intro         |Verse
e|-------------------|-----------------------------------|
B|-------------------|-----------------------------------|
G|-5-6-7-5-----------|-----------------5-6-7-5-----------|
D|-5-6-7-5---5-7p5---|-----7~----7~----5-6-7-5---5-7p5---|
A|-----------------7-|-0-0---0-0---0-0-----------------7-|
E|-------------------|-----------------------------------|

Chorus
 (x2)
e|-----------------------------------------|
B|-----------------------------------------|
G|-9-9-9-9-9-9-9-9-10-10-10-10-10-10-10-10-|
D|-9-9-9-9-9-9-9-9-10-10-10-10-10-10-10-10-|
A|-7-7-7-7-7-7-7-7--8--8--8--8--8--8--8--8-|
E|-----------------------------------------|

third time
e|-----------------------------------------|
B|-----------------------------------------|
G|-9-9-9-9-9-9-9-9-10-10-10-10-12-12-12-12-|
D|-9-9-9-9-9-9-9-9-10-10-10-10-12-12-12-12-|
A|-7-7-7-7-7-7-7-7--8--8--8--8-10-10-10-10-|
E|-----------------------------------------|
              
                




MF-B 1998-2017: при цитировании ссылка на сайт Das ist Motorhead обязательна.