Motorhead tabs...
                        Iron Horse / Born to Lose

                        (Taylor, Brown, Lawrence)

>From the Motorhead album

Transcribed by Matt Javes (matt@redstart.demon.co.uk)

Version 1.1
July 13th, 1997

Visit Catch My Smoke - The Motorhead Tab Page
http://www.cs.mcgill.ca/~ktulu/motorhead

Standard Tuning (probably Eb live)

Intro
e|-------------------------------------|
B|-------------------------------------|
G|--------5-7--7-7-55-------5-7--------|
D|----5h7-5-7--7-7-55---5h7-5-7--------|
A|-5h7---------------5h7---------------|
E|-------------------------------------|

Main Riff
e|-------------------------------------|
B|-------------------------------------|
G|--------5-7--7-7-55-------5-7--7575~-|
D|----5h7-5-7--7-7-55---5h7-5-7--7575~-|
A|-5h7---------------5h7---------------|
E|-------------------------------------|

Verse
e|-------------------------------------|
B|-------------------------------------|
G|-----5-xx7-7-7-55----5-7---------75~-|
D|-7-xx5-xx7-7-7-557-xx5-7---------75~-|
A|-7-xx------------7-xx----------------|
E|-------------------------------------|

Pre-Chorus
e|--------------------------------------|
B|--------------------------------------|
G|-----5-xx7-7-7-55---------------------|
D|-7-xx5-xx7-7-7-557--777--777--777--77-|
A|-7-xx------------7--777--777--777--77-|
E|--------------------------------------|

Chorus (play this bit twice & the next bit once)
e|-------------------------------------|
B|-------------------------------------|
G|-------------------------------------|
D|-10-101010---------109-999-999-999-9-|
A|-8--8-8-8----------8-7-777-777-777-7-|
E|-------------------------------------|

e|--------------------------------|
B|--------------------------------|
G|--------------------------------|
D|-5-555-555-555-67-777-777-777-7-|
A|-3-333-333-333-45-555-555-555-5-|
E|--------------------------------|


-- 
Matt Javes              Everything above represents my opinion only. 
                                Except when I'm lying....

        matt@redstart.demon.co.uk 

                
                




MF-B 1998-2017: при цитировании ссылка на сайт Das ist Motorhead обязательна.