Motorhead tabs...
                        Hoochie Coochie Man

                            Motorhead
                  (originally by Muddy Waters)

> Originally released on the B-side of the "Shine (Live)" single


Version 2.0
Last updated: December 17th, 1997

Transcribed by: Gus Siewert (ktulu@cs.mcgill.ca)

Visit Catch My Smoke - The Motorhead Tab Page
http://www.cs.mcgill.ca/~ktulu/motorhead

~  : vibrato
b(): bend to note
/ \: slide up/down
h  : hammer-on
p  : pull-off

Tune down to Eb

This is a 12 bar blues

Intro solo
e|---------------------------------------------------------------|
B|-----------------------------------------------------12--------|
G|--------------------------------------------------12-14b(16)---|
D|--------------------------------------------12-14--------------|
A|---5~-------4~-------7~-------5~--------/14--------------------|
E|-0--------0--------0--------0----------------------------------|

e|----------------------------------------------------------|
B|----------------------------------------------------------|
G|--r(14)-12-14-14p12----12-14-14b(16)p12-14p12h14b(16)-etc.|
D|-------------------h14------------------------------------|
A|----------------------------------------------------------|
E|----------------------------------------------------------|

Main Riff
  Guitar
e|---------------------------|
B|---------------------------|
G|---------------------------|
D|-----2-----------2---------|
A|---2----4-5~-------2-------|
E|-0-------------------3b(4)-|
 | Bass
G|--------------------------|
D|-------------------7---5--|
A|-7-777-7-777-7-777---7----|
E|--------------------------|


Chorus                                                  (different improv. on 
  Guitar                                                (this bit with each chorus)
e|--------------------------|--------------------------|-7777777997|55555----------|
B|--------------------------|--------------------------|-7777777997|55555----------|
G|-----2----------2---------|-----2----------2---------|-----------|---------------|
D|---2----4-5~------2-------|---2----4-5~------2-------|-----------|--------------2|
A|-0------------------3b(4)-|-0------------------3b(4)-|-----------|---------------|
E|--------------------------|--------------------------|-----------|--------/-\-0--|
 |Bass
G|--------------------------|--------------------------|--------------------------
D|-7-777-7-777-7-777--777-5-|-7-777-7-777-7-777--7-756-|-------------------7---5--|
A|--------------------------|--------------------------|-7-777-7-777-7-777---7---7|
E|--------------------------|--------------------------|--------------------------|
                
e|-----------------|----------------|-----------------------------------|
B|-----------------|----------------|-----------------------------------|
G|-----------------|----------------|-----------------------------------|
D|-4-4-4---4-4-4-4-|-2-2------------|---------------------------2-0-4---|
A|-2-2-2-2-2-2-2-2-|-0-0------------|---------2-4-/5-\4-2-4p2-----0-2---|
E|-----------------|--------------3-|-0-0--/4-----------------4---------|
 |
G|-----------------|----------------|-----------------------------------|
D|-9-999-9-999-9-98|-7-777-7-777-56-|---------5-7-9-7-5-7-5-------------|
A|-----------------|----------------|-7-777-7---------------7-777-------|
E|-----------------|----------------|------------------------------7----|

Guitar for Verse 2
e|-7---7--|-6-7---7-|-6-7---7-|-6-7---8-8-8-|-8-7---7-|-6-7---7-|-6-7---7-|-7-----------|
B|-7---7--|-6-7---7-|-6-7---7-|-6-7---7-7-7-|-7-7---7-|-6-7---7-|-6-7---6-|-6-----------|
G|--------|---------|---------|-------------|---------|---------|---------|-------------|
D|--------|---------|---------|-------------|---------|---------|---------|-------------|
A|--------|---------|---------|-------------|---------|---------|---------|-----/-\-----|
E|--------|---------|---------|-------------|---------|---------|---------|-------------|

Bass for verse 3                                              (x2)
G|-----|---------------|---------------|---------------|---------|
D|-----|-------7---5---|-------7---5---|-------7---5---|-7-------|
A|-7---|-----7---7---7-|-----7---7---7-|-----7---7---7-|-5-----5-|
E|-----|---------------|---------------|---------------|---------|



MF-B 1998-2017: при цитировании ссылка на сайт Das ist Motorhead обязательна.