Motorhead tabs...
                              Heart of Stone

                                Motorhead

>From the Iron Fist album.

Version 1.0
Last updated: June 18th, 1997

Transcribed by: Matt Javes (matt@redstart.demon.co.uk)

Visit Catch My Smoke - The Motorhead Tab Page
http://www.cs.mcgill.ca/~ktulu/motorhead


. = palm mute
/ = tremolo pick
/

Tune down to Eb.

Main Riff
e|-----------------------------|
B|-----------------------------|
G|------5------7------5------7-|
D|------5------7------5------7-|
A|-00000--00000--00000--00000--|
E|-----------------------------|
   .....  .....  .....  .....

Verse (interspersed with Main Riff)
e|-------------------------------------|
B|-------------------------------------|
G|-------------------------------------|
D|-7-7-7-7-7-77-5-777-7-7-7-7-7-5-777--|
A|-5-5-5-5-5-55-3-555-5-5-5-5-5-3-555--|
E|-------------------------------------|

Chorus
e|---------------------------------------------------|
B|---------------------------------------------------|
G|---------------------------------------------------|
D|-12-12--129-9--912-12--129-9--912-12--129-9--975---|
A|-10-10--107-7--710-10--107-7--710-10--107-7--753---|
E|---------------------------------------------------|

1st solo = Verse riff several times
2nd solo = Verse + Main (as played under vocals) + chorus

Coda
e|---------------------------------------------------|
B|---------------------------------------------------|
G|---------------------------------------------------|
D|-7-5---7-5---7--5----7--5----3---2--------(2)------|
A|-5-3---5-3---5--3----5--3----1---0--------(0)------|
E|---------------------------------/-----------------|
                                   /

-- 
Matt Javes              Everything above represents my opinion only. 
                                Except when I'm lying....

        matt@redstart.demon.co.uk 

                
                




MF-B 1998-2017: при цитировании ссылка на сайт Das ist Motorhead обязательна.