Motorhead tabs...
                             Godzilla Akimbo

                                Motorhead

Originally released on ???
Transcribed from Archive Series (Motorhead) on Rialto Records

Version 1.0
February 4th, 1998

Transcribed by Matt Javes (matt@redstart.demon.co.uk)

Visit Catch My Smoke - The Motorhead Tab Page
http://www.cs.mcgill.ca/~ktulu/motorhead

Tune down to Eb (down half a step)

h/p = hammer on/pull off
b/r = bend/release
 .  = palm mute

The whole track is based on three main riffs with a bit of soloing.

Riff A
e|------------------------------------------------|
B|------------------------------------------------|
G|------------------------------------------------|
D|-2---7--5----2---7--5----2---7--5---5-5-5-7-7-7-|
A|-0--------7--0--------7--0--------7-3-3-3-5-5-5-|
E|------------------------------------------------|
The bass plays the same (root notes of chords)

Riff B: play Riff A with palm muting throughout.

Riff C
e|--------------------------------------------------------------------|
B|-----10b-10p8--------10b-10p8---------10b-10p8----10b-8-10-10b-8-10-|
G|-------------h9--------------h9---------------h9--------------------|
D|--------------------------------------------------------------------|
A|-0---------------0---------------0----------------------------------|
E|--------------------------------------------------------------------|
The bass plays Riff A

The soloing is backed by Riff A on the Bass.

--
Matt Javes              Everything above represents my opinion only.
                                Except when I'm lying....

        matt@redstart.demon.co.uk







Рекомендуем посетить сайты партнеров:

Реклама на сайте
Реклама Для вас в нашей фирме виндовс 7 купить лицензию для всех со скидками.

MF-B 1998-2017: при цитировании ссылка на сайт Das ist Motorhead обязательна.