Motorhead tabs...
Visit Catch My Smoke - The Motorhead Tab Page
http://www.cs.mcgill.ca/~ktulu/motorhead

                                Motorhead
                                Go To Hell

                                Version 1.2
Last Update: May 16th, 1997

>From the Ironfist album.

Tune down to Eb.

Main Riff
e|--------------------------------|
B|--------------------------------|
G|--------------------------------|
D|---------5~-----5~-----4-4-5-54-|
A|-5h7-------7------7-------------|
E|----00000---0000---0000---------|
      .....   ....   ....

Chorus
e|------------------------------------|
B|------------------------------------|
G|------------------------------------|
D|-5-55555555555-4-3-2-22222222222222-|
A|-3-33333333333-2-1-0-00000000000000-|
E|------------------------------------|

e|------------------------------------|
B|------------------------------------|
G|------------------------------------|
D|-5-55555555555-4-3-2-222222---------|
A|-3-33333333333-2-1-0-0000005-555555-|
E|---------------------------3-333333-|

Bridge
e|--------------------------|
B|--------------------------|
G|--------------------------|
D|-----5---7p5---------4-5--|
A|-5h7--h7-----7p5-5h7------|
E|--------------------------|

-- 
Matt Javes              Everything above represents my opinion only. 
                                Except when I'm lying....

        matt@redstart.demon.co.uk 

                
                




MF-B 1998-2017: при цитировании ссылка на сайт Das ist Motorhead обязательна.