Motorhead tabs...

                                Fire, Fire

                                Motorhead

Originally released on the "Ace of Spades" album

Version 1.0
November 3rd, 1997

Transcribed by Matt Javes (matt@redstart.demon.co.uk)

Visit Catch My Smoke - The Motorhead Tab Page
http://www.cs.mcgill.ca/~ktulu/motorhead

Tune down to Eb.

/ \ = slide up/down
~ = vibrato
" = tremelo pick

Main/Verse Riff
e|---------------------|
B|---------------------|
G|----5--7------7--5---|
D|----5--7------7--5---|
A|-0003-05---0005-03---|
E|---------------------|

Pre-Chorus
e|--------------|--------------|
B|--------------|--------------|
G|--------------|--------------|
D|-/7-----------|-/7-----------|
A|-----9~~~~----|-----9~~~~----|
E|--------------|--------------|

Chorus
e|-------------------------|
B|-------------------------|
G|-7-7---7-7---7-7---7-7---|
D|-7-7---7-7---7-7---7-7---|
A|-5-5---5-5---5-5---5-5---|
E|-------------------------|

Post-Chorus
e|-------------------------|
B|-------------------------|
G|---5-7-5-7-5---5-7-5-7---|
D|---5-7-5-7-5---5-7-5-7---|
A|-0-3-5-3-5-3-0-3-5-3-5---|
E|-------------------------|

Pre-Solo
e|--------------------------|
B|--------------------------|
G|--------------------------|
D|-2"-3"-4"-5"-6"-7"-8"-9"--|
A|-0"-1"-2"-3"-4"-5"-6"-7"--|
E|--------------------------|

Solo Backing 
e|---------------------------------|
B|---------------------------------|
G|---------------------------------|
D|-4-4-4--4--4-4--4--4-4--4--4-2-2-|
A|-2-2-2--2--2-2--2--2-2--2--2-0-0-|
E|---------------------------------|
  x8 followed by Post Chorus

Coda                A                     B
e|--------------------|---------------------|
B|--------------------|---------------------|
G|-14"--12"--11"--9"--|-14"--12"--14"--12"--|
D|--------------------|---------------------|
A|--------------------|---------------------|
E|--------------------|---------------------|
  Order: A x4, B x2, A x2, B x2, A (fade out)




MF-B 1998-2017: при цитировании ссылка на сайт Das ist Motorhead обязательна.