Motorhead tabs...

                              Fast and Loose

                                 Motorhead

>From the "Ace of Spades" album

Version 1.0
August 17th, 1997

Transcribed by: Matt Javes (matt@redstart.demon.co.uk)

Visit Catch My Smoke - The Motorhead Tab Page
http://www.cs.mcgill.ca/~ktulu/motorhead

Tuning: Eb

Main Riff
e|----------------------------------|
B|----------------------------------|
G|----------------------------------|
D|-----7p5--5-7~-----7p5------------|
A|-0-0----h7-----0-0----h7-5h7p5p0--|
E|----------------------------------|
   . .           . .

Pre-Chorus
e|----------------------------|
B|----------------------------|
G|-----12-12-14b------14-12~--|
D|-----12-12-14b------14-12~--|
A|-0-0------------0-0---------|
E|----------------------------|
   . .            . .

Chorus
e|----------------------------------|-----|-------|
B|----------------------------------|-----|-------|
G|-----9-11b-11r--------------11-9~-|-o---|-------|
D|-----9-11b-11r-----h911p9---11-9~-|--/--|-11-9~-|
A|-0-0-----------9h11------h11------|---o-|-11-9~-|
E|----------------------------------|-----|-------|


-- 
Matt Javes              Everything above represents my opinion only. 
                                Except when I'm lying....

        matt@redstart.demon.co.uk 

                
                



MF-B 1998-2017: при цитировании ссылка на сайт Das ist Motorhead обязательна.