Motorhead tabs...

                               Eagle Rock

                            (by Daddy Cool)

>B-side of 1916 single

Visit Catch My Smoke - The Motorhead Tab Page
http://www.cs.mcgill.ca/~ktulu/motorhead

Version 1.0
Last updated: November 2nd, 1997

Transcribed by Peter Hawkins (peter@ccs1.cc.monash.edu.au)

I have had requests for the complete version. I also checked and found a few
small errors in the original post. The Complete Eagle Rock is:

Verse:

e|-----0----------0^^^
B|-----------2-------|
G|-------------------|
D|-------------------|
A|--0-----0----0--0^^^
E|-------------------|

--------------------------------------------------------------

e|^^--------------|---------------------0^^^
B|----3-----0-----|--2-------2-------------|
G|-------2--------|-----2----------2-------|
D|----------------|------------------------|
A|^^--0--0-----0--|--0-----0----0-----0-0^^^
E|----------------|------------------------|

e|^^--------------|---------------------0^^^^^--------------|
B|----3-----0-----|--2-------2-------------|----3-----0-----|
G|-------2--------|-----2----------2-------|-------2--------|
D|----------------|------------------------|----------------|
A|^^--0--0-----0--|--0-----0----0-----0-0^^^^^--0--0-----0--|
E|----------------|------------------------|----------------|

e|--------------------------|--------------------------|-----0----------0^^^
B|--------------------------|--------------------------|-----------2-------|
G|--2--2-----2-----2-----0^^^^h1--1-----1-----1-----0^^^^h2----------------|
D|--------------------------|--------------------------|-------------------|
A|--0-----0-----0-----0--0^^^^^^-----0-----0-----0--0^^^^^^-----0----0--0^^^
E|--------------------------|--------------------------|-------------------|

--------------------------------------------------------------- - 4 times

Chorus:
||                                         ||
||: A | A | G/G G/A G/B G/C | D | A | E A :||
||                                         ||


V1

Now listen,
Oh we're steppin' out.
I'm gonna turn around,
Gonna turn around once and we'll do the Eagle Rock.
Oh momma!
Oh you're rockin' well!
Hmm yeah you do it so well,
well we do it so well when we do the Eagle Rock
Now momma,
Yeah you're rockin' fine!
Why don't you give me a sign?
Hmm just give me a sign and we'll do the Eagle Rock.


Chorus

Hey Hey Hey good old Eagle Rock's here to stay,
I'm just crazy 'bout the way we move,
Doin' the Eagle Rock.
Oh-oh-oh come on fast, you can come on slow
I'm just crazy 'bout the way we move,
Doin' the Eagle Rock.

V2

Go momma!
Well you're rockin' fine!
Why don't you give me a sign?
Just gotta give me a sign and we'll do the Eagle Rock.
Oh baby!
Well I feel so free!
Hmm what you do to me!
What you do to me when we do the Eagle Rock.

Repeat Chorus

Instumental and Solo


V3

Now listen,
More we're steppin' out.
Yeah, gonna turn around,
Gonna turn around once and we'll do the Eagle Rock.

Repeat Chorus

Doin the Eagle Rock.
Doin the Eagle Rock.
Doin the Eagle Rock.


Further instructions: As is printed in huge letters on the front cover
of the original EP:

"PLAY THIS RECORD LOUD!"





MF-B 1998-2017: при цитировании ссылка на сайт Das ist Motorhead обязательна.