Motorhead tabs...
Visit Catch My Smoke - The Motorhead Tab Page
http://www.cs.mcgill.ca/~ktulu/motorhead

From: Matt Javes 


                        (Don't Need) Religion

                                Motorhead

Tune down to Eb

The Bass follows Guitar 1 (approximately)

Riff A (Guitar 1)
e|--------------------------|
B|--------------------------|
G|--------------------------|
D|--------------------------|
A|-0-0-2-0-3-0-3-2-0-0-2-3--|
E|--------------------------|

Riff A (Guitar 2)
e|--------------------------|
B|--------------------------|
G|--------------------------|
D|-2-2-----5-5-----2-2---5--|
A|-0-0-----3-3-----0-0---3--|
E|--------------------------|

Riff B (Guitar 1)
e|-----------------------------------| Guitar 2 plays the same
B|-----------------------------------| except that it plays the
G|-----------------------------------| chords straight through
D|-99999999--------7777777777777777--| instead of the -79757975
A|-77777777797579755555555555555555--| bit.
E|-----------------------------------|

Fill A (Guitar 1)
e|-----------------------------------| Guitar 2 as above.
B|-----------------------------------|
G|-----------------------------------|
D|-99999999--------7777777777777-5---|
A|-77777777797579755555555555555-3---|
E|-----------------------------------|

Riff C (Guitar 1)
e|--------------------------|
B|--------------------------| 
G|--------------------------|
D|-11-1111111111119---7-----|
A|-9--9-9-9-9-9-9-7---5-----|
E|--------------------------|

Fill B (Guitar 1)
e|----------------------------|
B|----------------------------| 
G|----------------------------|
D|-11-1111111111119---7--5----|
A|-9--9-9-9-9-9-9-7---5--3----|
E|----------------------------|

Song Structure: Riff A x 2 (bass only)
                Riff A x 4
                Riff B x 3 \Verse
                Fill A     /sequence
                Riff A x 4
                Verse
                Riff A x 4
                Riff C x 3 \Solo
                Fill B     /backing
                Riff A x 4
                Verse
                Riff A x 4

                




MF-B 1998-2017: при цитировании ссылка на сайт Das ist Motorhead обязательна.