Motorhead tabs...

                                Dog-Face Boy

                                Motorhead

Originally released on the "Sacrifice" album.

Tune down to Eb (half a step).

Verse
e|----------------------------------------|
B|----------------------------------------|
G|----------------------------------------|
D|---5/7--7\5--5/7--7\5--5/7--7\5---------|
A|---3/5--5\3--3/5--5\3--3/5--5\3---------|
E|-00---00---00---00---00---00---00000000-|
   ..   ..   ..   ..   ..   ..   ........

Chorus
e|-------------------------------------------------------------|
B|-------------------------------------------------------------|
G|---------1-x-1-1----------1-x-1-1----------3-x-3-3-----------|
D|---------1-x-1-1----------1-x-1-1----------3-x-3-3--3--------|
A|-3-333333---------3-333333---------5-555555---------1--------|         
E|-1-111111---------1-111111---------3-333333------------------|
     ......           ......           ......


-- 
Matt Javes              Everything above represents my opinion only. 
                                Except when I'm lying....

        matt@redstart.demon.co.uk 

                
                





Рекомендуем посетить сайты партнеров:

Реклама на сайте
Реклама У нас со скидками гостиные стенки всем без проблем. Качественно.

MF-B 1998-2017: при цитировании ссылка на сайт Das ist Motorhead обязательна.