Motorhead tabs...

                               Dirty Love

                               Motorhead

>Originally released as a b-side of the "Ace of Spades" single.

Version 1.0
December 14th, 1997

Transcribed by Gus Siewert (ktulu@cs.mcgill.ca)

Visit Catch My Smoke - The Motorhead Tab Page
http://www.cs.mcgill.ca/~ktulu/motorhead

/ \ = slide up/down
 ~  = vibrato

Tune halfway between E and Eb

Here's another b-side gem.

Bass Rhythm for intro solo is same as main guitar riff.

Intro solo
e|---------------------------------------------------12-------12--------12--------12-|
B|-14b--14-12----------12-14b--12----12----12-----12--------12-------12--------12----|
G|-14b--14-12-14p12----12-14b--12-14-12-14-12-14b-------14b------14b-------14b-------|
D|------------------14------------14----14-------------------------------------------|
A|-----------------------------------------------------------------------------------|
E|-----------------------------------------------------------------------------------|

                        |------- improvise on this as it is not exact -----|
e|--------------------------------------------------------------------------|
B|-----12-12-15b(17)~---15p12-----------------------------------------------|
G|-14b------------------------14p12----14p12----12-14-14b-------14p12-------|
D|----------------------------------14-------14-----------12h14-------14-12-|
A|--------------------------------------------------------------------------|
E|--------------------------------------------------------------------------|

e|-------------------------------------------------------------|
B|-------------------------------------------------------12-14-|
G|----------12-----------12-----------12-----------12----12-14-|
D|-14p12----12--14p12----12--14p12----12--14p12----12-14-------|
A|------14-----------14-----------14-----------14--------------|
E|-------------------------------------------------------------|

                                             |-this bit 4 times-|
e|---------------------------------------------------12----12-12--|
B|-14b--14-12----------12-14b--12----12----12-----12-12-12-12-12--|
G|-14b--14-12-14p12----12-14b--12-14-12-14-12-14b-----------------|
D|------------------14------------14----14------------------------|
A|----------------------------------------------------------------|
E|----------------------------------------------------------------|

e|------------------------------------------------------|
B|-15p12-------------12----12-14-14b-14p12----12-14-12\-|
G|-------14-14p12----12-14-12-14-14b-14p12-14-12-14-12\-|
D|----------------14----14-----------------14-----------|
A|------------------------------------------------------|
E|------------------------------------------------------|

Main riff
e|---------|---------|---------------|---------------|
B|---------|---------|---------------|---------------|
G|---------|---------|-----9-------9-|-----9-------9-|
D|-7-------|-5-------|-----9-------9-|-----9-------9-|
A|-7-------|-5-------|-----7-------7-|-----7-------7-|
E|-5-------|-3-------|-0-0---0-000---|-0-0---0-000---|

Chorus                      
e|---------|---------|----------|---------|----------|
B|---------|---------|----------|---------|----------|
G|---------|---------|----------|---------|-main-----|
D|-7-------|-9-------|-12-------|-9-------|-riff-----|
A|-7-------|-9-------|-12-------|-9-------|----------|
E|-5-------|-7-------|-10-------|-7-------|----------|



MF-B 1998-2017: при цитировании ссылка на сайт Das ist Motorhead обязательна.