Motorhead tabs...
                         Die You Bastard

                            Motorhead


> From the "Another Perfect Day" album

Version 1.0
Last updated: July  2nd, 1997

Transcribed by: Matt Javes (matt@redstart.demon.co.uk)

Visit Catch My Smoke - The Motorhead Tab Page
http://www.cs.mcgill.ca/~ktulu/motorhead

Tune down to Eb.

\ = slide

Intro
e|-------------------------------------------------------|
B|-12--10---------10-------------------------------------|
G|---------9--12--------------9--------------------------|
D|--------------------10--12---------10--------------10--|
A|-------------------------------12------12--10--12------|
E|-------------------------------------------------------|

Main Riff
e|-------------------------------|-------------------------------|
B|-------------------------------|-------------------------------|
G|-----5-5-----7-7-----5-5-------|-----5-5-----7-7-----5-5---9-9-|
D|-----5-5-----7-7-----5-5-------|-----5-5-----7-7-----5-5---9-9-|
A|-0-0-3-3-0-0-5-5-0-0-3-3-5-5-7-|-0-0-3-3-0-0-5-5-0-0-3-3-0-7-7-|
E|-------------------------3-3-5-|-------------------------------|

Before Chorus, replace the 2nd bar with this
e|-------------------------------|
B|-------------------------------|
G|-----5-5-----7-7-----5-5-------|
D|-----5-5-----7-7-----5-5-------|
A|-0-0-3-3-0-0-5-5-0-0-3-3-4--6--|
E|-------------------------2--4--|

Chorus
e|-----------------------------------------------|
B|-----------------------------------------------|
G|---4-----------7---------------4-------2---4-6-|
D|-----4---4-------7---7-----4-----4-------2-4-6-|
A|-2-----2---2-5-----5---5-2---2-----2-0---------|
E|-----------------------------------------------|

e|-------------------------------------------------------------|
B|-------------------------------------------------------------|
G|-------4-------7---------------4-----7-7\--7-7\--7-7\--7-7\--|
D|---4-----4-------7---7-----4-----4---5-5\--5-5\--5-5\--5-5\--|
A|-2---2-----2-5-----5---5-2---2-----2-------------------------|
E|-------------------------------------------------------------|



MF-B 1998-2017: при цитировании ссылка на сайт Das ist Motorhead обязательна.