Motorhead tabs...
                DEVILS
                 by MOTORHEAD
                        
           transcribed by THe BaSTarD


symbols:

           h:hammer
           / or \: slide
           a.h: artificial harmonics






Play that part 20 times
      .  .            .  .    
e|---------------------------------------------------
B|---------------------------------------------------
G|----------------6---------------7------------------
D|-----------4h6--6----------6h7--7------------------
A|----4--4------------4--4---------------------------
E|---------------------------------------------------


Chorus

   Devils in my head...  

e|---------------------------------------------------
B|---------------------------------------------------
G|---7-/-9---11-----14-----13---11-\-7---7-/-9---11--
D|---------------------------------------------------
A|---5-/-7----9-----12-----11----9-\-5---5-/-7----9--
E|---------------------------------------------------

                     ....take care  
                                    a.h 
e|---------------------------------------------------
B|---------------------------------------------------
G|---14-/-16--14--13--11--9----7--7--7--7--7--7--7---
D|-----------------------------7--7--7--7--7--7--7---
A|---12-/-14--12--11---9--7----5--5--5--5--5--5--5---
E|---------------------------------------------------

                whispers in the walls...        
    a.h
e|---------------------------------------------------
B|---------------------------------------------------
G|---7--7----7-/-9--11--14--13-11-\-7---/-9-11-------
D|---7--7--------------------------------------------
A|---5--5----5-/-7---9--12--11--9-\-5---/-7--9-------
E|---------------------------------------------------

                       ...beware        

e|---------------------------------------------------
B|---------------------------------------------------
G|--14---16--14--13--11---9---2----------------------
D|----------------------------2----------------------
A|--12-/-14--12--11---9---7---0----------------------
E|---------------------------------------------------


    .  .  .  .  .  .  .  .  .  .  .  .  .  .  .  .      
e|---------------------------------------------------
B|---------------------------------------------------
G|--4--4--4--4--4--4--4--4--4--4--4--4--4--4--4--4---
D|--4--4--4--4--4--4--4--4--4--4--4--4--4--4--4--4---
A|--2--2--2--2--2--2--2--2--2--2--2--2--2--2--2--2---
E|---------------------------------------------------


    .  .  .  .  .  .  .  . 
e|---------------------------------------------------
B|---------------------------------------------------
G|--4--4--4--4--4--4--4--4---------------------------
D|--4--4--4--4--4--4--4--4---------------------------
A|--2--2--2--2--2--2--2--2---------------------------
E|---------------------------------------------------




MF-B 1998-2017: при цитировании ссылка на сайт Das ist Motorhead обязательна.