Motorhead tabs...
Visit Catch My Smoke - The Motorhead Tab Page
http://www.cs.mcgill.ca/~ktulu/motorhead

                                Death and Glory

                                  Motorhead

>From the Bastards album.

Transcribed by Matt Javes & Gus Siewert

Tune down to Eb.

<> = artificial harmonic
b = bend

Main Riff 
e|----------------------------------------------------------------|
B|----------------------------------------------------------------|
G|----------------------------------------------------------------|
D|-9-9-9-9-9-99-9995-5-5-5-5-55-5557-7-7-7-7-77-777---------------|
A|-7-7-7-7-7-77-7773-3-3-3-3-33-3335-5-5-5-5-55-555-7----7-7----7-|
E|--------------------------------------------------5-3b-5-5-3b-5-|
I'm not sure if the rhythm is correct. Listen to the song and
see what you think.

Pre-Chorus 1
e|------------------|-------------|
B|------------------|-------------|
G|------------------|-------------|
D|-5555555555555555-|7-play-fill-7|
A|-3333333333333333-|5-see-below-5|
E|------------------|-------------|
This is played twice each time, and the fill is usually different
each time. The fill below is used both times in the first pre-
chorus and for the first part of the second pre-chorus. I don't
know what the other fills are or what the rhythm guitar does
(let me know if you know any more).

Fill
e|-------------------------------------------------------------------------|
B|-12-12-12-12-12-x-x-12-12-12-12-12-12-x-x-x-12-12-12-12-x-x-12-12-12-14b-|
G|-12-12-12-12-12-x-x-12-12-12-12-12-12-x-x-x-12-12-12-12-x-x-12-12-12-14b-|
D|-12-12-12-12-12-x-x-12-12-12-12-12-12-x-x-x-12-12-12-12-x-x-12-12-12-14b-|
A|-------------------------------------------------------------------------|
E|-------------------------------------------------------------------------|

Pre-Chorus 2
e|---------------------------------------|
B|---------------------------------------|
G|---------------------------------------|
D|-555555555555555544444444--------------|
A|-3333333333333333222222226b-5-3-6b-5-3-|
E|---------------------------------------|

Chorus                                    
e|-------------------------------------------------------|
B|-12-14-12-14b-12-14-12-14b-----------------------------|
G|-12-14-12-14b-12-14-12-14b---------------<5b6r5><3><5>-|
D|-12-14-12-14b-12-14-12-14b-----------------------------|
A|-------------------------------------------------------|
E|---------------------------333333333333----------------|
                             ............

e|--------------------------------------------|
B|-12-14-12-14b-12-14-12-14b------------------|
G|-12-14-12-14b-12-14-12-14b------------------|
D|-12-14-12-14b-12-14-12-14b------------------|
A|--------------------------------------------|
E|---------------------------3333333322221111-|
                             ................

Bridge

e|----------|--------------------------|
B|----------|--------------------------|
G|----------|--------------------------|
D|-5--------|----[make some noise]-----|
A|-5--------|--------------------------|
E|-3--------|--------------------------|

e|-----------------------------------------------|
B|-----------------------------------------------|
G|-----------------------------------------------|
D|-5555555555555555-------5-------------5--------|
A|-3333333333333333---5h7--h7-5h7---5h7--h7-5h7--|
E|------------------0-------------0--------------|

Ending
e|--------|-----------|-0----|
B|--------|-----------|-0----|
G|--------|-----------|-0----|
D|-3----4-|-----------|-2----|
A|-3----4-|-----------|-2----|
E|-1----2-|-----------|-0----| 
           Auf Stehen!

--
Matt Javes              Everything above represents my opinion only. 
                                Except when I'm lying....

        matt@redstart.demon.co.uk 

                
                




MF-B 1998-2017: при цитировании ссылка на сайт Das ist Motorhead обязательна.