Motorhead tabs...


                                Deaf Forever

                                 Motorhead

> From the "Orgasmatron" album

Visit Catch My Smoke - The Motorhead Tab Page
http://www.cs.mcgill.ca/~ktulu/motorhead

Version 1.1
July 2nd, 1997

Tabbed by Matt Javes & Gus Siewert

Tune down to Eb

Verse Riff
e|-----------------------------------|
B|-----------------------------------|
G|--------------------------------4--|
D|--------------------------------4--|
A|-24-4-4-424-4-4-474-4-4-4-24-2422--|
E|-02-2-2-202-2-2-252-2-2-2-02-020---|

Chorus
e|--------------------------|---------------------------------|
B|--------------------------|---------------------------------|
G|--------------------------|---------------------------------|
D|-------6-----7-----4------|------6----7777799999-7777799999-|
A|-4-----4-----5-----2------|-4----4----5555577777-5555577777-|
E|-2------------------------|-2-------------------------------|

Solo Backing
                                (twice)
e|------------------|------------------| |---------|---------|
B|------------------|------------------| |---------|---------|
G|------------------|------------------| |---------|---------|
D|-24-4-4-424-4-4-4-|------------------| |-7-7-7-7-|-9-9-9-9-|
A|-02-2-2-202-2-2-2-|-24-4-4-424-4-4-4-| |-5-5-5-5-|-7-7-7-7-|
E|------------------|-02-2-2-202-2-2-2-| |---------|---------|



MF-B 1998-2017: при цитировании ссылка на сайт Das ist Motorhead обязательна.