Motorhead tabs...
                          Dead Men Tell No Tales

                                 Motorhead


>From the "Bomber" album

Visit Catch My Smoke - The Motorhead Tab Page
http://www.cs.mcgill.ca/~ktulu/motorhead

Version 2.0
July 19th, 1997

Transcribed by Matt Javes (matt@redstart.demon.co.uk)
Corrected by Gus Siewert (ktulu@cs.mcgill.ca)

This song has tons of lead guitar bits and fills over the top.
This is the basic rhythm guitar line and a couple of fills.

b(): bend to note in brackets
Tune down to Eb.

Main Riff
e|-17b(19)------17b(19)------|<- Lead Guitar 
B|---------------------------|(omit the first 17 the first time)
G|---------------------------|
D|-4-7-6--6-79--4-7-6-79-----|<- Rhythm Guitar
A|-2-5-4--4-57--2-5-4-57-----|<-
E|---------------------------|<-

Verse
e|------------------------------|
B|------------------------------|
G|------------------------------|
D|-4--7-6-7-4--7-6-7-4--7-6-79--|
A|-2--5-4-5-2--5-4-5-2--5-4-57--|
E|------------------------------|

Chorus
e|------------------------------------------------------------------|
B|------------------------------------------------------------------|
G|------------------------------------------------------------------|
D|-55555555555555555555555555555555222222222222222222222222---------|
A|-3333333333333333333333333333333300000000000000000000000055555555-|
E|---------------------------------------------------------33333333-|

Solo backing is
Main riff twice
Chorus
Main riff twice

Fill at the end over main riff

e|--------------------|
B|-12------12---------|
G|-14b(16)-14b(16)----|
D|--------------------|
A|--------------------|
E|--------------------|

Coda
e|--------------------|
B|--------------------|
G|-9-------4"[tremolo]|
D|-9---7---4"[picking]|
A|-7---7---2"---------|
E|-----5--------------|



MF-B 1998-2017: при цитировании ссылка на сайт Das ist Motorhead обязательна.