Motorhead tabs...
                             Dead And Gone                             

                                Motorhead

Originally released on the "Snake Bite Love" album

Version 1.0
March 19th, 1998

Transcribed by Matt Javes (matt@redstart.demon.co.uk)

Visit Catch My Smoke - The Motorhead Tab Page
        http://www.cs.mcgill.ca/~ktulu/motorhead

Tune down to Eb (down half a step)

Verse - Clean tone  Verse Ending
e|-----------------|-----------------|
B|-----1-------1---|-----1-----1-----|
G|---2-------2-----|---2-----2-----2-|
D|-2-----2-0-----0-|-2-----2-----2---|
A|-----------------|-----------------|
E|-----------------|-----------------|
This is played about 11 times plus the ending each verse (4 bar intro, 8 bars
under vocals)

Pre-Chorus 1 (after 1st verse) - Clean tone
         x4                                x1        x4
e|---------|---------------------------------|---------|
B|-----1---|-----1-------1-------1-----1-----|-----1---|
G|---2-----|---2-------2-------2-----2-----2-|---2-----|
D|-3-----3-|-2-----2-0-----0-2-----2-----2---|-3-----3-|
A|---------|---------------------------------|---------|
E|---------|---------------------------------|---------|

cont..                                           x1
e|-------------------------------------------------|
B|-----1-------1-------1-----1---------1-----1-----|
G|---2-------2-------2-----2-----2---2-----2-----2-|
D|-2-----2-2-----2-0-----0-----0---0-----0-----0---|
A|-------------------------------------------------|
E|-------------------------------------------------|
Go straight to the second verse after this.

Pre-Chorus 2 (after 2nd & 3rd verses) - Clean tone
         x4                                x1        x4                     x1
e|---------|---------------------------------|---------|----------------------|
B|-----1---|-----1-------1-------1-----1-----|-----1---|-----1-------1---1----|
G|---2-----|---2-------2-------2-----2-----2-|---2-----|---2-------2-----2----|
D|-3-----3-|-2-----2-0-----0-2-----2-----2---|-3-----3-|-2-----2-2-----2-2----|
A|---------|---------------------------------|---------|----------------------|
E|---------|---------------------------------|---------|----------------------|

Chorus - Distorted tone                      Main Ending
e|------------------------------------------|-----------------|
B|------------------------------------------|-----------------|
G|------7--7-7-------5---------------7--7-7-|-----------------|
D|-7--7-7--7-7--7--7-5---------7--7--7--7-7-|-----------------|
A|-7--7-5--5-5--7--7-3--55-5-5-7--7--5--5-5-|-3-3-3-3-3-3-5-5-|
E|-5--5---------5--5----33-3-3-5--5---------|-1-1-1-1-1-1-3-3-|

Chorus Ending A (last bar of 1st Chorus)    Chorus Ending B
e|-----------------------------------------|-----------------|
B|-----------------------------------------|-----------------|
G|-----------------------------------------|-----------------|
D|---------------------------------7-------|-----------------|
A|-3-3-3-3-3-3-3-3-3-3-3-3-3-3-3-3-7-------|-3-3-3-3-3-3-3-3-|
E|-1-1-1-1-1-1-1-1-1-1-1-1-1-1-1-1-5-------|-1-1-1-1-1-1-1-1-|
Chorus End B is the last bar of the 2nd Chorus (the 4th bar of the second
chorus) After playing it go straight into the coda which is the Chorus riff
played at least another 4 times and fading out, with the Main Ending used each
time. 



MF-B 1998-2017: при цитировании ссылка на сайт Das ist Motorhead обязательна.