Motorhead tabs...
                                  Dance

                                Motorhead

Originally released on the "Ace of Spades" album.

Version 1.0
December 14th, 1997

Transcribed by Matt Javes (matt@redstart.demon.co.uk)
            and Gus Siewert (ktulu@cs.mcgill.ca)

Visit Catch My Smoke - The Motorhead Tab Page
http://www.cs.mcgill.ca/~ktulu/motorhead

h/p = hammer on/pull off

Tune down to Eb

Main Riff (Guitar)
e|-----------------|-----------------|
B|-----------------|-----------------|
G|---------------3-|-----------------|
D|--5-3h5p3h5p3--3-|--5-3h5p3h5p3----|
A|-------------h5--|-------------h51-|
E|-3---------------|-3---------------|

Main Riff (Bass)
G|-------------3-3-|
D|-555555555555----|
A|-----------------|
E|-----------------|

Verse 
  Guitar
e|-------------------------------|
B|-------------------------------|
G|-------------------------------|
D|-5-7-8-7-5-7-8-7-8-7-8-7-8-7-8-|
A|-5-7-7-7-5-7-7-7-7-7-7-7-7-7-7-|
E|-------------------------------|
 |Bass 
G|-------------------------------|
D|-5-5-5-5-5-5-5-5-5-5-5-5-5-5-5-|
A|-------------------------------|
E|-------------------------------|

Chorus (Bass)
G|-----------------|
D|-----------------|
A|-7-7-7-7-7-7-5-5-|
E|-----------------|
A guitar plays the same with power chords ((x79xxx) & (x57xxx)) quietly
in the background.

Coda (Guitar)
e|-----------------|
B|-----------------|
G|-------------3-3-|
D|-------------3-3-|
A|-5555555555551-1-|
E|-333333333333----|
The Bass plays the Main Riff.




MF-B 1998-2017: при цитировании ссылка на сайт Das ist Motorhead обязательна.