Motorhead tabs...
                                 Motorhead

                                Damage Case

                         from the "Overkill" Album

                                Version 2.0
                              May 25th, 1997


Visit Catch My Smoke - The Motorhead Tab Page
http://www.cs.mcgill.ca/~ktulu/motorhead

Transcribed by: Matt Javes 
Corrected by: Gus Siewert 

This should be about right.

Tune down to Eb (down half a step)

Intro
e|-----------------------------------------|
B|-----------------------------------------|
G|-9-12-9-12-9-12-9-14-9-12-9-12-9-12-9-14-|
D|-9-12-9-12-9-12-9-14-9-12-9-12-9-12-9-14-|
A|-7-10-7-10-7-10-7-12-7-10-7-10-7-10-7-12-|
E|-----------------------------------------|

Riff 1                       Fill 1
e|--------------------------|-------------------------|
B|--------------------------|-------------------------|
G|--------------------------|-------------------------|
D|-9--9--9--9--9--9--12-12--|-9--9--9--9--9--9--9--9--|
A|-7--7--7--7--7--7--10-10--|-7--7--7--7--7--7--7--7--|
E|--------------------------|-------------------------|

Riff 2                        Fill 2
e|----------------------------|---|
B|----------------------------|---|
G|----------------------------|---|
D|-4--4--4-4-4-4----------7---|---|
A|-2--2--2-2-2-2--5-5-5---5---|-2-|
E|----------------3-3-3-------|-0-|

Riff 3
e|----------------------------------------------|
B|----------------------------------------------|
G|----------------------------------------------|
D|-4--4--4--4--2--2--2--2------------------2-4--|
A|-2--2--2--2--0--0--0--0--4--2--4--2--2-4-0-2--|
E|-------------------------2--0--2--0--0-2------|

Bass Fill
G|---------------------------|
D|---------------------------|
A|-7-6-5--------5-7-5--------|
E|-------6--7-7-------7-6-7--|

Fill 3
e|---------------------------|
B|---------------------------|
G|---------------------------|
D|-4--4--4--4--2--2--2--2----|
A|-2--2--2--2--0--0--0--0-4--|
E|------------------------2--|

Riff 4                     Fill 4
e|------------------------|----------------------|
B|------------------------|----------------------|
G|------------------------|----------------------|
D|------------------------|----------------------|
A|-4--4--4--4--4--4--7-7--|-4--4--4--4--4--4--4--|
E|-2--2--2--2--2--2--5-5--|-2--2--2--2--2--2--2--|

Riff 5                     Fill 5
e|------------------------|---|
B|------------------------|---|
G|------------------------|---|
D|-6--6--6-6-6-6-------9--|-6-|
A|-4--4--4-4-4-4-7-7-7-7--|-4-|
E|---------------5-5-5----|---|

Riff 6
e|----------------------------------------------|
B|----------------------------------------------|
G|----------------------------------------------|
D|-6--6--6--6--4--4--4--4------------------4-6--|
A|-4--4--4--4--2--2--2--2--6--4--6--4--4-6-2-4--|
E|-------------------------4--2--4--2--2-4------|

Song Structure: (I'm guessing this)
                Intro
                Riff 1 x 4
                Riff 1 x 3 \
                Fill 1      \
                Riff 2 x 3   } Main Block
                Fill 2      /
                Riff 3     /
                Repeat Main Block
                Riff 1 x 7 \
                Fill 1      \ Solo 1
                Riff 2 x 3  /
                Fill 2     /
                Bass Fill
                Fill 3
                Riff 4 x 5
                Fill 4
                Riff 5 x 3
                Fill 5
                Riff 6
                Riff 4 to end w. solo 2




MF-B 1998-2017: при цитировании ссылка на сайт Das ist Motorhead обязательна.