Motorhead tabs...
Visit Catch My Smoke - The Motorhead Tab Page
http://www.cs.mcgill.ca/~ktulu/motorhead

                              Crazy Like A Fox

                                 Motorhead

>From the Overnight Sensation album.

Version 1.1
May 17th 1997

Tune down to Eb.

The rhythms are probably wrong so you'd better listen to the CD
before trying this out.

Riff A
e|-----------------------------------|
B|-----------------------------------|
G|-----------------------------------|
D|--------------------5-------5------|
A|-5/7-777-75/7-777-773-x5/7-73-x5/7-|
E|-3/5-555-53/5-555-55--x3/5-5--x3/5-|

Riff B
e|-------------------------------|
B|-------------------------------|
G|-------------------------------|
D|-------------------------------|
A|-5--------5--------5--5--5--5--|
E|-3--------3--------3--3--3--3--|

Riff C
e|---------------------------------|
B|---------------------------------|
G|---------------------------------|
D|----------------2----------2-2-2-|
A|----02320---0-23----02320--0-0-0-|
E|-2-2-----2-2-2---2-2-----2-------|

Riff D
e|-------------------------------------------|
B|-------------------------------------------|
G|-------------------------------------------|
D|-12/14-141414-14-7/9-999-9-5/7-777-xx7-x77-|
A|-10/12-121212-12-5/7-777-7-3/5-555-xx5-x55-|
E|-------------------------------------------|
The last time, just hold the chord after the last slide.

-- 
Matt Javes              Everything above represents my opinion only. 
                                Except when I'm lying....

        matt@redstart.demon.co.uk 

                
                





Рекомендуем посетить сайты партнеров:

Реклама на сайте
Реклама на что обратить внимание при покупке форд куга 2014

MF-B 1998-2017: при цитировании ссылка на сайт Das ist Motorhead обязательна.