Motorhead tabs...
                             Cat Scratch Fever
                                  
                                Ted Nugent

>From the March or Die album.

Transcribed by Karl Dyson (karld@feklore.demon.co.uk)
Revised by Matt Javes (matt@redstart.demon.co.uk)

Version 1.1
July 13th, 1997

Visit Catch My Smoke - The Motorhead Tab Page
http://www.cs.mcgill.ca/~ktulu/motorhead

Tune down to Eb.

/\ = slide up/down
. = palm mute

Intro
e|----|
B|----|
G|----|         
D|----|
A|----|
E|-5\-|

Main Riff
e|--------------------|--------------------|
B|--------------------|--------------------|
G|--------------------|--------------------|
D|-2-4-55--2-4-5------|-2-4-55--5-4-2------|
A|-2-4-55--2-4-5------|-2-4-55--5-4-2------|
E|-------00-------000-|-------00-------000-|
         ..       ...         ..       ...

Verse
e|------------------------|
B|------------------------|
G|------------------------|
D|-2-2--2-2-2--20-0-552-2-|
A|-2-2--2-2-2--20-0-552-2-|
E|------------------------|

Bridge
e|------------------|-----|-----|---------------------------|
B|------------------|-----|-----|---------------------------|
G|------------------|-o---|-o---|---------------------------|
D|------------------|--/--|--/--|---------------------------|
A|-7--------5-------|---o-|---o-|-7--------9999999999999999-|
E|-5-555555-3-333333|-----|-----|-5-555555-7777777777777777-|
     ......   ......                ......

Fill Riff
e|-----------------------|
B|-----------------------|
G|-----------------------|
D|-----------------------|
A|-7------99-5------77---|
E|-5-0000-77-3-0000-55---|
     ....      ....

Coda w./Phaser(?)
e|------------------------|
B|------------------------|
G|------------------------|
D|-2-4-55---55---55-------|
A|-2-4-55---55---55---etc-|
E|------------------------|

Riff Order:
        Intro
        Main x2
        
        Verse x2
        Main
        Verse x2
        Main x2

        Bridge
        Main x2
        Fill
        Main (2nd bar only)
        Fill
        Main

        Verse x2
        Main x8
        Coda

-- 
Matt Javes              Everything above represents my opinion only. 
                                Except when I'm lying....

        matt@redstart.demon.co.uk 

                
                




MF-B 1998-2017: при цитировании ссылка на сайт Das ist Motorhead обязательна.