Motorhead tabs...

                                Capricorn

                                Motorhead

Originally released on the "Overkill" album

Version 1.0
October 15th, 1997

Transcribed by Matt Javes (matt@redstart.demon.co.uk)

Visit Catch My Smoke - The Motorhead Tab Page
http://www.cs.mcgill.ca/~ktulu/motorhead

Tune down to Eb.

/ \ = slide up/down
~ = vibrato
. = palm mute
h/p = hammer on/pull off
b = bend

Intro Riff            (x4)
Play this using your neck pickup. with the volume on the guitar turned down, 
then crank it up after 4th repetition.
e|------------------------|
B|-14-12------------------|
G|-14-12------------------|
D|------------------------|
A|------------------------|
E|------------------------|

Main/Chorus Riff
e|------------------------|
B|------------------------|
G|------------------------|
D|-14-12-------12-11------|
A|-12-10-------10-9-------|
E|------------------------|

Verse                   Fill 1         Fill 2    Fill 3
e|---------------------|--------------|---------|----------------|
B|---------------------|--------------|---------|----------------|
G|---2---------2-------|--------------|---------|----------------|
D|---2---------2-------|-/7-9-9p7--7~-|-9p7--7~-|-9p7--9b9b7~~9\-|
A|-5-0-------5-0-------|---------h9---|----h9---|----h9----------|
E|-3---------3---------|--------------|---------|----------------|
   .         .
Fills 1 & 2 are over the 1st Verse. Fill 3 is over the 2nd Verse.

Pre-Chorus
e|---------------------|
B|---------------------|
G|---------------------|
D|-9-9-9-9-9-9-9-9-----|
A|-9-9-9-9-9-9-9-9-----|
E|-7-7-7-7-7-7-7-7-etc.|

Over the Pre-Chorus, a sort of arpeggio is played on a B chord (xx9877).

This is very approximately what is played, although it seems to vary
slightly each time.
e|------7-------------7-------------|
B|--------------------------7-------|
G|----8-------------8---------------|
D|-/9------------/9-------9---------|
A|----------------------------------|
E|----------------------------------|

The Solo Backing is simply the Verse, Pre-Chorus and Chorus.

The Coda is the Main/Chorus Riff with more soloing.

-- 
Matt Javes              Everything above represents my opinion only. 
                                Except when I'm lying....

        matt@redstart.demon.co.uk 

                
                



MF-B 1998-2017: при цитировании ссылка на сайт Das ist Motorhead обязательна.