Motorhead tabs...
Visit Catch My Smoke - The Motorhead Tab Page
http://www.cs.mcgill.ca/~ktulu/motorhead

                             B   U   R   N   E   R

                                 Motorhead
                       from the album "Bastards"  1993

                       transcribed by Scott Andrews
                       fills by Gus Siewert
Main Riff
|----------------------------------------------------------------------|
|----------------------------------------------------------------------|
|----------------------------------------------------------------------|
|----------------------------------------------------------------------|
|----------------------------------------------------------------------|
|--0-5-7-7-7-7-7-7--0-5-7-7-7-7-7-7--0-5-7-7-7-7-7-7--0-5-7-7-0-5-7-7--|

                                                      D       A
|----------------------------------------------------------------------|
|----------------------------------------------------------------------|
|-----------------------------------------------------7----------------|
|-----------------------------------------------------7-------7--------|
|-----------------------------------------------------5-------7--------|
|--0-5-7-7-7-7-7-7--0-5-7-7-7-7-7-7--0-5-7-7-7-7-7-7----------5--------|

Fill 1 - End of every two verses
              
e|--------------|
B|--------------|
G|--------------|
D|-----7--------|
A|-8h9---9p7-5--|
E|--------------|

Chorus
   G                  A     B
|------------------------|---------------|
|------------------------|---------------|
|------------------------|---------------|
|--5---------------------|--9------------|
|--5------------------7--|--9------------|
|--3--33-3333-3333-33-5--|--7------------|


   G                  A     B
|------------------------|---------------|
|------------------------|---------------|
|------------------------|---------------|
|--5---------------------|--9------------|
|--5------------------7--|--9------------|
|--3--33-3333-3333-33-5--|--7------------|

Chorus End

e|---------------|
B|---------------|
G|--------10~----|
D|---9-10----10--|
A|-8-------------|
E|---------------|
          Burner!



MF-B 1998-2017: при цитировании ссылка на сайт Das ist Motorhead обязательна.