Motorhead tabs...

                                 Broken

                                Motorhead

Originally released on the "Overnight Sensation" album

Version 1.0
October 15th, 1997

Transcribed by Matt Javes (matt@redstart.demon.co.uk)
Additions by Gus Siewert (ktulu@cs.mcgill.ca)

Visit Catch My Smoke - The Motorhead Tab Page
http://www.cs.mcgill.ca/~ktulu/motorhead

Tune down to Eb.

/ \ = slide up/down
~ = vibrato
. = palm mute
" = tremelo pick

Bass intro :)
G|-------|
D|-------|
A|-7-7-7-|
E|-------|


Main Riff                         (x3)                           (x1)
e|------------------------------------|------------------------------|
B|------------------------------------|------------------------------|
G|------------------------------------|------------------------------|
D|-9------9------9------7----7/9------|-9------9------9------9-7-7-7-|
A|-7--7-7-7--7-7-7--7-7-5--5-5/7--7-7-|-7--7-7-7--7-7-7--7-7-7-5-5-5-|
E|------------------------------------|------------------------------|
      . .    . .    . .    .      . .      . .    . .    . .

Verse
e|-----------------------------------------------------|
B|-----------------------------------------------------|
G|-----------------------------------------------------|
D|-----------------------------------5-5-5-5/7-7-7-7/9-|
A|-7-7-7-7-7-7-7-7-7-7-7-7-7-7-7-7-7-3-3-3-3/5-5-5-5/7-|
E|-----------------------------------------------------|
   . . . . . . . . . . . . . . . . .

e|-----------------------------------------------|
B|-----------------------------------------------|
G|-----------------------------------------------|
D|-----------------------------------5-5-5-5/7-7-|
A|-7-7-7-7-7-7-7-7-7-7-7-7-7-7-7-7-7-3-3-3-3/5-5-|
E|-----------------------------------------------|
   . . . . . . . . . . . . . . . . .

Chorus                                                          (x3)
e|------------------------------------------------------------------|
B|------------------------------------------------------------------|
G|-2---------------5---------------12---------------7---------------|
D|-2---------------5---------------12---------------7---------------|
A|-0---------------3---------------10---------------5---------------|
E|------------------------------------------------------------------|
                                                                 (x1)
e|-------------------------------------------------------------------|
B|-------------------------------------------------------------------|
G|-2---------------5---------------12--------------------------------|
D|-2---------------5---------------12--------------------------------|
A|-0---------------3---------------10--------------------------------|
E|--------------------------------------------------7777777777777777-|

Fill (under D chord)
e|-----------|
B|-----------|
G|-----------|
D|-----7-----|
A|-7/9---9-7-|
E|-----------|


Pre-Solo
e|----------------------------------------------|
B|----------------------------------------------|
G|-------5-5~-------5-5~-------5-5~-------/8-7~-|
D|-------4-4~-------4-4~-------4-4~-------/8-7~-|
A|----------------------------------------------|
E|-3-4-5------3-4-5------3-4-5------3-4-5-------|
   . . .      . . .      . . .      . . .

Beginning of solo
e|--------------------------|
B|-7----10----11---7---etc.-|
G|-9b---12b---13b--9b-------|
D|--------------------------|
A|--------------------------|
E|--------------------------|
  
Solo backing                      (x2)                                (x2)
e|-----------------------------------|-----------------------------------|
B|-----------------------------------|-----------------------------------|
G|---------------------------7-9-7-9-|---------------------------5-7-5-7-|
D|---------------------9-7---7-9-7-9-|---------------------7-5---5-7-5-7-|
A|-9-------9-----9-----7-5-x---------|-7-------7-----7-----5-3-x---------|
E|-7-7-7-7-7-7-7-7-7-7---------------|-5-5-5-5-5-5-5-5-5-5---------------|

                                  (x2)
e|-----------------------------------|
B|-----------------------------------|
G|---------------------------7-9-7-9-|
D|---------------------9-7---7-9-7-9-|
A|-9-------9-----9-----7-5-x---------|
E|-7-7-7-7-7-7-7-7-7-7---------------|


After solo play Pre-Solo x1 and last bar of Chorus.

For the 3rd verse don't play the muted E's.

Coda (in 'free time')
e|---------------------------------------------------|
B|---------------------------------------------------|
G|-2---------------5---------------12"---------------|
D|-2---------------5---------------12"---------------|
A|-0---------------3---------------10"---------------|
E|---------------------------------------------------|




MF-B 1998-2017: при цитировании ссылка на сайт Das ist Motorhead обязательна.