Motorhead tabs...
/---------------------------------------------------------------------------
/ The following is the author's own interpertation of the song, to be used -
/ for studying or private use only                                         -
/---------------------------------------------------------------------------
                   MOTORHEAD - "BORN TO RAISE HELL"
                   From the Album "BASTARDS"
                   Copyright 1993 ZYX Music
                              
Transcribed by: Gus Siewert (ktulu@cs.mcgill.ca)
                            (http://www.cs.mcgill.ca/~ktulu)

Visit Catch My Smoke - The Motorhead Tab Page
http://www.cs.mcgill.ca/~ktulu/motorhead

.  - palm mute                  
/  - slide up to 
\  - slide down to                           
h  - hammer on                  
ph - pinch harmonic                      
b  - bend 
r  - release bend
~  - vibrato
() - ghost note, sustained note

Tuning: Eb

Intro
               E7#9                     C5 G5 A5
e|-------|---------------------------------------|
B|-------|-------8-------------------------------|
G|-------|-------7-------------------------------|
D|-------|-------6-----------------------5-----2-|
A|-------|-------7------------------\\\--3--5--0-|
E|-2-1-0-|-(0)----------------------\\\-----3----| 

Riff 1
   A5            
e|-----------------|------------------|
B|-----------------|------------------|
G|-----------2-----|---2--------------|
D|-2-2-4-2-2-2-2-2-|-2-2-4-2-2-2------|
A|-0-0-0-0-0---0-0-|-0---0-0-0-0-3-4--|
E|-----------------|------------------| 

Verse
   A5           (x2) D5            (x2) 
e|-----------------|------------------|
B|-----------------|------------------|
G|-----------------|-2-2-4---5---4-2--|
D|-2-2-4---5---4-2-|-0-0-0-0-0-0-0-0--|
A|-0-0-0-0-0-0-0-0-|------------------|
E|-----------------|------------------| 

Pre-Chorus           Ending 1            Ending 2 (Zoomster only)
   E5                                                  
e|-----------------||-------------0-0--||-------------------| 
B|-----------------||-------------0-0--||-------------------|
G|-----------------||------------------||-------------------|
D|-----------------||------------------||---------2-2-------|
A|-2-2-2-2-2-2-2-2-||-2-2-2-2-2-2------||-------------------|
E|-0-0-0-0-0-0-0-0-||-0-0-0-0-0-0------||-0-0-3h4-----3b4-0-|
   . . . . . . . .    . . . . . .

Chorus
   A5                                   D5                G5   
e|-----------------|------------------|-----------------|------------------|
B|-----------------|------------------|-----------------|------------------|
G|-----------------|------------------|-2-2-4---2---4-2-|------------------|
D|-2-2-4---2---4-2-|-2-2-4---2---4-2--|-0-0-0-0-0-0-0-0-|------------------|
A|-0-0-0-0-0-0-0-0-|-0-0-0-0-0-0-0-0--|-----------------|-5-5-5-5-5-5-5-5--|
E|-----------------|------------------|-----------------|-3-3-3-3-3-3-3-3--|  
 Born..              Born..             We know..         we do it real well 

   A5                                   D5                G5      C5   
e|-----------------|------------------|-----------------|------------------|
B|-----------------|------------------|-----------------|------------------|
G|-----------------|------------------|-2-2-4---2---4-2-|------------------|
D|-2-2-4---2---4-2-|-2-2-4---2---4-2--|-0-0-0-0-0-0-0-0-|-----------5------|
A|-0-0-0-0-0-0-0-0-|-0-0-0-0-0-0-0-0--|-----------------|-5-----5-5-3------|
E|-----------------|------------------|-----------------|-3-----3-3--------|  
 Born..              Born..             Voodoo...         cast my spell 

Bridge
   E5                                                  
e|-----------------|--------------------|
B|-----------------|--------------------|
G|-----------------|--------------------|
D|-----------------|---------2----------|
A|-2-2-2-2-2-2-2-2-|---------2---2-2-2--|
E|-0-0-0-0-0-0-0-0-|-0-0-3b4-0---0-0-0--|
   . . . . . . . .   . .         . . .

Fill before 2nd verse
              
e|---------------|
B|ph-------------|
G|-4b5r4-2-------|
D|---------4-----|
A|-----------3-4-|
E|---------------|

Rhythm for 1st Solo

   D5         (x4)   A5      G5      C5      D5  (x2)
e|-----------------|-----------------------------|
B|-----------------|--------------------------3--|
G|-2-2-4---2-2-4---|--2---------------5-------2--|
D|-0-0-0-0-0-0-0-0-|--2-------5-------5-------0--|
A|-----------------|--0-------5-------3----------|
E|-----------------|----------3------------------|


2nd Solo
   A5                  G5                  C5           D5
e|-------------------------------------------------------------------|
B|-13b14---------------15b16---------------16b17--------18b20--------|
G|-------14-14---11h14-------14-14---11h14-------14-14-------14-14---|
D|-------------------------------------------------------------------|
A|-------------------------------------------------------------------|
E|-------------------------------------------------------------------| 

   A5                  G5                  C5                     D5
e|-------------------------------------------------------------------|
B|-0h8h10~-------------10~---10b-----------10b---------10b-----------|
G|-------------------------------------------------------------------|
D|-------------------------------12b-10\8-----12b-10------12b-10-----|
A|-------------------------------------------------------------------|
E|-------------------------------------------------------------------| 

                       A5  G5  C5      D5     A5  G5  C5     D5      
e|-------------------------------------------------------------------|
B|-10---10---10---10-------------------------------------------------|
G|---7h8--7h8--7h8--7h8\5--------------------------------------------|
D|--------------------------5------5---7-7-----7---5------5---7---7--|
A|--------------------------5---6h7-8h9---8h9--7---5---6h7-8h9-8h9---|
E|--------------------------3------------------5---3-----------------|
             
  A5  G5  C5      D5       E5     
e|------------------------|-----------------|
B|------------------------|-----------------|
G|------------------------|-----------------|
D|-7---5------5---7-7-----|-----------------|
A|-5---5---6h7-8h9----0-0-|-2-2-2-2-2-2-2-2-|
E|-5---3------------------|-0-0-0-0-0-0-0-0-|
                            . . . . . . Stop!

Lyrics:
Listen up here, I'll make it quite clear
I'm gonna put some boogie in your ear
Shake and bop, don't you stop
Dance like a maniac until you drop

I don't mind, I don't mind
I can run a razor right up your spine
What are you waiting for
What do you think you were created for

Show us you care, show us you dare
You don't know what happened, not if you weren't there

Born to raise hell, born to raise hell
We know to do it and we do it real well
Born to raise hell, born to raise hell
Voodoo medicine, cast my spell
Born to raise hell, born to raise hell
Play that guitar just like ringin' a bell
Take it or leave it

Going for broke, rock till you choke
It don't matter if you drink or smoke
Speak through the beat, get up on your feet
Sweating like a hound dog, white as a sheet

Don't you be scared, don't you be scared
Everybody terrified, I don't seem fair
What are you waiting for
What do you think you were created for

Out of your seat, blind in the heat
Do the nasty boogie mama, stomp your feet




MF-B 1998-2017: при цитировании ссылка на сайт Das ist Motorhead обязательна.