Motorhead tabs...

                                Boogeyman

                                Motorhead

>From the Rock 'n' Roll album.

Visit Catch My Smoke - The Motorhead Tab Page
http://www.cs.mcgill.ca/~ktulu/motorhead

Version 2.2
September 26th, 1997

By    Matt Javes 
and   Gus Siewert 

Tune down to Eb.

Bass Intro & verse (this might be an octave higher if played on bass)
this is only an approximation really.

G|-------------------------|---------5-5-------------5-5-------|
D|-5--7-7--7--5-5--7-7-7-7-|-5-5-7-7-----7-7-5-5-7-7-----7-7-5-|
A|-------------------------|-----------------------------------|
E|-------------------------|-----------------------------------|

G|-5--7-7--7--5-5--7-7-7-7-|-5-5------------------5-5-------|
D|-------------------------|------7-7--7--5-5-7-7-----7-7-5-|
A|-------------------------|--------------------------------|
E|-------------------------|--------------------------------|

G|---------------7--7-7-7-7-|-7----------5-----7-5------------|
D|--------------------------|---7--7-7-7---7-7----------------|
A|-7--7-7-7-7--7------------|----------------------7-7--7-7-7-|
E|--------------------------|---------------------------------|

Verse
e|---------------------------------|
B|---------------------------------|
G|---------------------------------|
D|----5~~7----5~~7----5~~7----5~~7-|
A|-xxx-----xxx-----xxx-----xxx-----|
E|-xxx-----xxx-----xxx-----xxx-----|

Chorus
e|----------------------------------------|
B|----------------------------------------|
G|----------------------------------------|
D|----9~~10----9~~10-----9~~10-----9~~10--|
A|-xxx------xxx-------xxx-------xxx-------|
E|-xxx------xxx-------xxx-------xxx-------|


-- 
Matt Javes              Everything above represents my opinion only. 
                                Except when I'm lying....

        matt@redstart.demon.co.uk 

                
                



MF-B 1998-2017: при цитировании ссылка на сайт Das ist Motorhead обязательна.