Motorhead tabs...
                             Blackheart

                              Motorhead

>Originally released on the "Rock 'n' Roll" album

Version 2.0
December 20th, 1997

Tabbed by Gus Siewert (ktulu@cs.mcgill.ca)

Visit Catch My Smoke - The Motorhead Tab Page
http://www.cs.mcgill.ca/~ktulu/motorhead


Tune down to Eb.


Intro/Chorus                          
  Bass                                    (x2)
G|-----|---------------------------------------|-------------|
D|-----|---------------------------------------|-------------|
A|-----|2-22-2-2-2-2-22-2-2-2------------2-22--|-2-2-2-2-2-2-|
E|-3-3-|----------------------3-33-3-3-3-------|-------------|
 |Guitar                                                     |
e|-----|---------------------------------------|-------------|
B|-----|---------------------------------------|-------------|
G|-----|4-x7-------4-x7------------------4-x7--|-------------|
D|-----|4-x7-------4-x7-------5-x5-------4-x7--|-------------|
A|-----|2-x5-------2-x5-------5-x5-------2-x5--|-pick scrape-|
E|-----|----------------------3-x3-------------|-------------|

Verse
G|----------------------|----------------------|
D|-2--2--2-2-2---2--2-2-|----------------------|
A|----------------------|-3-3---3-3-3---3--3-3-|
E|----------------------|----------------------|
 |
e|----------------------|----------------------|
B|----------------------|----------------------|
G|----------------------|----------------------|
D|-----------5~---------|-----------5~---------|
A|-7--7--5-7-----7--5-7-|-7--7--5-7-----7--5-7-|
E|----------------------|----------------------|

Phil's solo is backed by the verse riff,

Wurzel's by      (x4)
            G|-4-x7-|
            D|-4-x7-|
            A|-2-x5-|
            E|------|

Bridge
  Guitar 1 (Bass plays the same notes)                 (x3)
e|---------------------------------------------------------|
B|---------------------------------------------------------|
G|---------------------------------------------------------|
D|-4-4-4-4-4-4-4-4-4-4-4-4-4-4-4-4-4-4-4-4-4-4-4-4-4-4-4-4-|
A|-2-2-2-2-2-2-2-2-2-2-2-2-2-2-2-2-2-2-2-2-2-2-2-2-2-2-2-2-|
E|---------------------------------------------------------|
 | . . . . . . . . . . . . . . . . . . . . . . . . . . . .
 |Guitar 2
e|---------------------------------------------------------|
B|---------------------------8------------5----------------|
G|---------------------------7------------4----------5\4---|
D|---------------------------------------------------5\4---|
A|---------------------------------------------------------|
E|---------------------------------------------------------|

  Guitar 1                                             (x1)
e|---------------------------------------------------------|
B|---------------------------------------------------------|
G|---------------------------12-----------9-------7--------|
D|-4-4-4-4-4-4-4-4-4-4-4-4-4-12-----------9-------7--------|
A|-2-2-2-2-2-2-2-2-2-2-2-2-2-10-----------7-------5--------|
E|---------------------------------------------------------|
 | . . . . . . . . . . . . . 
 |Guitar 2
e|---------------------------------------------------------|
B|---------------------------------------------------------|
G|---------------------------12-----------9-------7--------|
D|---------------------------12-----------9-------7--------|
A|---------------------------10-----------7-------5--------|
E|---------------------------------------------------------|



MF-B 1998-2017: при цитировании ссылка на сайт Das ist Motorhead обязательна.