Motorhead tabs...
                              Bite the Bullet

                                 Motorhead


>From the "Ace of Spades" album

Visit Catch My Smoke - The Motorhead Tab Page
http://www.cs.mcgill.ca/~ktulu/motorhead

Version 1.0
July 19th, 1997

Transcribed by Matt Javes (matt@redstart.demon.co.uk)
            and Gus Siewert (ktulu@cs.mcgill.ca)

Tune down to Eb.

Intro (2nd time add vibrato to last note)
e|---------------------|
B|---------------------|
G|---------------------|
D|---------------------|
A|-5-4-3-2--5-4-3-2----|
E|------------------3--|

Fill
  Guitar
e|--------------------------------------------------|
B|--------------------------------------------------|
G|-2-----------2-----------2-----------2------------|
D|-2-----------2-----------2-----------2------------|
A|-0-----------0-----------0-----------0------------|
E|--------------------------------------------------|
 |Bass
G|--------------------------------------------------|
D|--------------------------------------------------|
A|-000005544332000005544332000005544332000005544332-|
E|--------------------------------------------------|


Riff A (x3)
  Guitar
e|-----------------------------------|
B|-----------------------------------|
G|-----------------------------------|
D|-7-7-77777-7-77777-7-77777-7-10-10-|
A|-5-5-55555-5-55555-5-55555-5-8--8--|
E|-----------------------------------|
 |Bass
G|-----------------------------------|
D|-----------------------------3--3--|
A|-3/5-55555-5-553/5-5-55555-5-------|
E|-----------------------------------|


Riff B
e|--------------------------------|------|
B|--------------------------------|------|
G|--------------------------------|-Play-|
D|-7-7-77777-7-77777-7-7777-------|-Fill-|
A|-5-5-55555-5-55555-5-55555432---|------|
E|------------------------------3-|------|

Solo Backing (play each bar 4 times)
e|------------------|------------------|-------|---Play---|
B|------------------|------------------|-------|----The---|
G|-6-6-66666-6-6666-|------------------|--Play-|-Chase-is-|
D|-4-4-44444-4-4444-|-7-7-77777-7-7777-|-Intro-|--Better--|
A|------------------|-5-5-55555-5-5555-|-------|-than-the-|
E|------------------|------------------|-------|---Catch--|

Lyrics:
Steppin' out, I'm leaving here
No use cryin', right in my beer
Enough's enough, believe it's true
Bite the bullet, I'm leaving you

A sad goodbye, I left a note
But I don't remember, what I wrote
The same old words, to say we're through
Bite the bullet, I'm leaving you

Well that's the way, it always is
Get sympathy, from all your friends
Seems there's nothing, nothing else to do
Bite the bullet, I'm leaving you



MF-B 1998-2017: при цитировании ссылка на сайт Das ist Motorhead обязательна.