Motorhead tabs...
                            Better Off Dead                             

                               Motorhead

Originally released on the "Snake Bite Love" album

Version 1.0
April 4th, 1998

Transcribed by Matt Javes (matt@redstart.demon.co.uk)

Visit Catch My Smoke - The Motorhead Tab Page
        http://www.cs.mcgill.ca/~ktulu/motorhead

 .  = palm mute
h/p = hammer on/pull off
b/r = bend/release

Tune down to Eb (down half a step)

Main (1st)                       (2nd, 3rd...)
e|------------------------------|------------------------------|
B|------------------------------|------------------------------|
G|------------------------------|------------------------------|
D|------------------------------|------------------------------|
A|----3--3----------3--3--------|----3--3----------3--3--------|
E|-345--5--555555345--5--333344-|-555--5--555555345--5--333344-|

Verse                      (1,2,4)      (3)
e|-------------------|-----------|--------|
B|-------------------|-----------|--------|
G|-9-9---9-9---9-9---|-----------|--------|
D|-9-9---9-9---9-9---|-----------|--------|
A|-7-7---7-7---7-7---|-----5---5-|--------|
E|-------------------|-05h7-5h7--|-03-b-r-|
                       .           .

Pre-Chorus
e|----------------------------------------------------------------------------------|
B|----------------------------------------------------------------------------------|
G|-5-5-5-5-5-5-4-4-4-4-4-4----------------------------------5-5-5-5-5-5-4-4-4-4-4-4-|
D|-5-5-5-5-5-5-4-4-4-4-4-4----------------------------------5-5-5-5-5-5-4-4-4-4-4-4-|
A|-3-3-3-3-3-3-2-2-2-2-2-2----------------------------------3-3-3-3-3-3-2-2-2-2-2-2-|
E|-------------------------3355-5553355-5553355-55533-55-555------------------------|

Chorus                      Ending (1st Chorus)
e|-------------------------|----------------------|
B|-------------------------|----------------------|
G|-7-7-7-6-----7-7-7-6-----|-7-7-7-6--6-6-7-7-7-7-|
D|-7-7-7-6-----7-7-7-6-----|-7-7-7-6--6-6-7-7-7-7-|
A|-5-5-5-4-----5-5-5-4-----|-5-5-5-4--4-4-5-5-5-5-|
E|-------------------------|----------------------|

Ending (2nd & 4th Chorus's): go straight back to the Pre-Chorus

Ending (3rd & 5th Chorus's)
e|------------------------|
B|------------------------|
G|-7-7-7-6-----7777777777-|
D|-7-7-7-6-----7777777777-|
A|-5-5-5-4-----5555555555-|
E|------------------------|

Solo Backing      Break     Ending
e|---------------|---------|---------|
B|---------------|---------|---------|
G|---------------|---------|---------|
D|---------------|---5---5-|---------|
A|-00000000-etc.-|-003-003-|-5-------|
E|---------------|---------|-3-------|
   ........        ..  ..



MF-B 1998-2017: при цитировании ссылка на сайт Das ist Motorhead обязательна.