Motorhead tabs...
                                 Bastard

                                Motorhead

Originally released on ???
Transcribed from Archive Series (Motorhead) on Rialto Records

Version 1.0
February 6th, 1998

Transcribed by Matt Javes (matt@redstart.demon.co.uk)

Visit Catch My Smoke - The Motorhead Tab Page
http://www.cs.mcgill.ca/~ktulu/motorhead

Tune down to Eb (down half a step)

/ \ = slide up/down
b/r = bend/release
h/p = hammer on/pull off

Intro                    x2
e|-------------------------|
B|-------------------------|
G|-77-7--99-9--77-7--99-9--|
D|-55-5--77-7--55-5--77-7--|
A|-------------------------|
E|-------------------------|

Main Riff - Eddie plays several variations on a single theme (quite possibly
improvisations), I've put the three main ones and I think most of the rest
are kind of a 'mix-n-match' of sections and the riffs here.

Variation 1
e|-------------------------------------------------------------------------|
B|-------------------------------------------------------------------------|
G|-------------------------------------------------------------77-7--99-9--|
D|-------------------------------------------------------------55-5--77-7--|
A|-5--7-7--7-7--7-7--7-5--7-7--7-7--7-7--7-5--7-7--7-7--7-7--7-------------|
E|-------------------------------------------------------------------------|

Variation 2
e|-------------------------------------------------------------------------|
B|-------------------------------------------------------------------------|
G|-------------------------------------------------------------------------|
D|-------------------------------------------------------------------------|
A|-5--7-7--7-7--7-7--7-5--7-7--7-7--7-7--7-5--7-7--7-7--7-7--7-------77-7--|
E|-------------------------------------------------------------55-5--------|

Variation 3
e|------------------------------------------------------------|
B|------------------------------------------------------------|
G|------------------------------------------------------------|
D|-----------5-------------------------------------------7/-\-|
A|-5--7-7--7---7---5--7-7--7------5--7-7--7-7p0-5-------------|
E|---------------------------5-7-------------------55-5-------|

'Chorus'
e|--------------------------------------------------|
B|--------------------------------------------------|
G|-111111111111111111111111111111111111111111131313-|
D|-9-9-9-9-9-9-9-9-9-9-9-9-9-9-9-9-9-9-9-9-9-111111-|
A|--------------------------------------------------|
E|--------------------------------------------------|
 cont..
e|--------------------------------------|
B|--------------------------------------|
G|-111111111111111111111111999999777777-|
D|-9-9-9-9-9-9-9-9-9-9-9-9-777777555555-|
A|--------------------------------------|
E|--------------------------------------|

Chorus Variation
e|----------------------------------------------------|
B|----------------------------------------------------|
G|----------------------------------------------------|
D|----------------------------------------------------|
A|-7b-7b-7p5---7/9-9--7/9-9--7/9-9--7/9-9--77-7--55-5-|
E|----------h7-5/7-7--5/7-7--5/7-7--5/7-7--55-5--33-3-|

--
Matt Javes              Everything above represents my opinion only.
                                Except when I'm lying....

        matt@redstart.demon.co.uk






MF-B 1998-2017: при цитировании ссылка на сайт Das ist Motorhead обязательна.